Song name
# A B C D E F G H I J K L M N O P Q R S T U V W X Y Z

Nofx - Whats The Matter With The Kids Today tab

-----------------------------------------------------------------------------
                   WHAT'S THE MATTER WITH KIDS TODAY - NOFX
-----------------------------------------------------------------------------
Tabbed by: me.
E-mail: metallica.boehseonkelz@gmail.com

Tuning: DADGBe (don't know if this is right, just guessing...)

The numbers above stand for the length of the note.
(4=quarter, 2=half, 8.=dotted eighth and so on)

-----------------------------------------------------------------------------

Intro/Verse:

both guitars:
   8  8  8  8  8  16 8. 8  8  8  8  8  2
e|---------------------------------------|
B|---------------------------------------|
G|---------------------------------------|
D|-2--2--5--5--2--2--5--5--2--2--5--5--0-|
A|-2--2--5--5--2--2--5--5--2--2--5--5--0-|
D|-2--2--5--5--2--2--5--5--2--2--5--5--0-|

Outro the same. Only the D-Chord isn't a half note, but four sixtenths.

Chorus:

1st guitar:
   (all 8ths)
e|---------------------------------|
B|---------------------------------|
G|---------------------------------|
D|-5-5-5-5-2-2-2-2-5-5-5-5-5-5-5-5-|
A|---------------------------------|
D|-5-5-5-5-2-2-2-2-5-5-5-5-5-5-5-5-|
2nd guitar:
   (all 16ths)
e|----------------------------------|
B|----------------------------------|
G|----------------------------------|
D|-22222222555555552222222222222222-|
A|-22222222555555552222222222222222-|
D|-22222222555555552222222222222222-|
Tap to rate this tab
# A B C D E F G H I J K L M N O P Q R S T U V W X Y Z