Song name
# A B C D E F G H I J K L M N O P Q R S T U V W X Y Z

Nofx - New Years Revolution tab

P.-- Palm mute
O.--Open

Intro

                 C                               G                                         D   E
   Forget about old acquaintance    Instead we honor Flagrance   This night is so cliched
e |-------0-----------------3|----------------------3|---------------------|
b |-------1-----------------3|----------------------2|---------------------|
g |-------0-----------------0|----------------------3|--------------------0|
d |-------2-----------------0|----------------------0|--------------------2|
a |-------3-----------------2|-----------------------|--------------------2|
E |-------0-----------------3|-----------------------|--------------------0|



We mix day old traditions     With random Premonitions      A futile Charade        X2

|0-------------------3|------------------------3|----------------------|
1--------------------3|------------------------2|----------------------|
0--------------------0|------------------------3|---------------------0|
|2--------------------0|------------------------0|--------------------2|
|3--------------------2|-------------------------|--------------------2|
|0--------------------3|-------------------------|--------------------0|



Forget about justice
Forget about war
Forget about the future
The government ignores

Fuck your resolution
Fuck your annual
Fuck your optimism
It just sounds so banal

 It  just sounds so banal   (palm muted)
|0-0-0-0-0-0-0--3-3-3-3-3-|
|1-1-1-1-1-1-1--2-2-2-2-2-|
|0-0-0-0-0-0-0--3-3-3-3-3-|
|2-2-2-2-2-2-2--0-0-0-0-0-|
|3-3-3-3-3-3-3------------|
|0-0-0-0-0-0-0------------|
P.                                           O.


Chorus

Were gunna make a new years revolution     A new years revolution    A new years revolution
|----------------------------------|---------------------|-----------------------|
|---------------------------------|----------------------|-----------------------|
|---------------------------------|----------------------|-----------------------|
|---------------------------------|-----9999999999999999-|-101010101010101001010-|
|-------------555555555555555555|-----7777777777777777---|-10101010101010101010--|
|------------3333333333333333333|----------------------|-------------------------|

  A new years revolution
|---------------------|
|---------------------|
|---------------------|
|-777777777777777777--|
|-555555555555555555--|
|---------------------|

Verse

     Next year is gunna be bad                The next one even worse
|----------------------------|--------------------------------------------|
|----------------------------|--------------------------------------------|
|----------------------------|--------------------------------------------|
|-555-----------------------|777----------------------- 99---77-----------|         X2
|-333---------555-----------|555-----------------------77---55------------|
|-------------333------------|--------------------------------------------|

Thats not called pessimism
It's just the the truth that hurts

Lets all sing together       Songs about change     Songs about people    Notes about rage
|--------------------|-------------------|------------------|------------|
|--------------------|-------------------|------------------|------------|
|--------------------|-------------------|------------------|------------|        X2
|55555555-----------|-------------------|77777777----------|99-------77--|
|33333333------ ----|55555555----------|55555555----------|77--------55--|
|-------------------|33333333----------|-------------------|-------------|
      p.                            P.                                  P.



Can we motivate?
Can we Incite?
Can we make a difference with lyrics oh so trite?

With lyrics oh so trite?
|----------------------------|
|----------------------------|
|----------------------------|
|5-5-5-5-5-5-5-5-7-7-7-7-7---|
|3-3-3-3-3-3-3-3-5-5-5-5-5---|
|----------------------------|
P.                                           O.



Chorus


Were gunna make a new years revolution     A new years revolution    A new years revolution
|----------------------------------|---------------------|-------------------------|
|---------------------------------|----------------------|-------------------------|
|---------------------------------|----------------------|-------------------------|
|---------------------------------|-----9999999999999999-|-101010101010101001010---|
|-------------555555555555555555|-----7777777777777777---|-10101010101010101010----|
|------------3333333333333333333|----------------------|---------------------------|

  A new years revolution
|---------------------|
|---------------------|
|---------------------|
|-777777777777777777--|          X3
|-555555555555555555--|
|---------------------|



Resolution!
|---------------------|
|---------------------|
|---------------------|
|---------------------|
|----------5----------|
|----------3----------|
                    Let ring
Tap to rate this tab
# A B C D E F G H I J K L M N O P Q R S T U V W X Y Z