Song name
# A B C D E F G H I J K L M N O P Q R S T U V W X Y Z

Nofx - Philty Phil Philanthropist tab

-------------------------------------------------------------------------------
                             Philty Phil Philanthropist - NOFX
-------------------------------------------------------------------------------
Tabbed by: esseniloveyou
E-mail: esseniloveyou@ymail.com

Tuning: Standard

A=Guitar Eric Melvin
B=Guitar El Hefe
A&B=Both Guitars

Intro Guitar A   "=play 5x
e|---------------------------------------------------------------------------|
B|---------------------------------------------------------------------------|
G|---"---"----"----"----"----"----"-----"------------------------------------|
D|-5----5----3----2----5----5----3-----2-------------------------------------|
A|-5----5----3----3----5----5----3-----3-------------------------------------|
E|-3----3----1----3----3----3----1-----3-------------------------------------|

Intro Part 2
The same as Intro 1 only with Guitar A&B

Intro Part 3 Guitar A
e|---------------------------------------------------------------------------|
B|---------------------------------------------------------------------------|
G|---------------------------------------------------------------------------|
D|-------------------------------------------------------5-5-5-5-7-7-4-4-5---|
A|-------5-5-5-5-5--3--2-3-3-3-2---------5-5-5-5-5--3--2---------------------|
E|-------------------------------3-3-3-3-------------------------------------|

Guitar B
e|---------------------------------------------------------------------------|
B|---------------------------------------------------------------------------|
G|---"---"----"----"----"----"----"-----"------------------------------------|
D|-5----5----3----2----5----5----2-----4----5--------------------------------|
A|-5----5----3----3----5----5----3-----5----5--------------------------------|
E|-3----3----1----3----3----3----3-----5----3--------------------------------|

Intro Verse Guitar A
e|------------------------------------|
B|-----------------------------7-7-7-7|
G|-----------------------------7-7-7-7|
D|-----5------------------------------|
A|-----5------------------------------|
E|-----3------------------------------|

Verse Guitar A
e|------------------------------------|
B|---8-8-8-8-8-8-8-8-8-8-8-8-7-7-7-7--|
G|---7-7-7-7-7-7-7-7-5-5-5-5-7-7-7-7--|x4
D|------------------------------------|
A|------------------------------------|
E|------------------------------------|

Verse Part 2 Guitar A
e|------------------------------------------------------|
B|-------------------8-8-8-8-6-6-6-6-8-8-8-8-8-8-8-8----|
G|--12--10---9---8---7-7-7-7-5-5-5-5-5-5-5-5-5-5-5-5----|
D|--12--10---9---8--------------------------------------|
A|--10---8---7---6--------------------------------------|
E|------------------------------------------------------|

Pre-Chorus Guitar A&B "=Play 7x
e|-------------------------------------------------------|
B|------------------------------------"-------"----------|
G|----"-------"-------"-------"------5-------7--------"--|
D|---5-------5-------2-------2-------5-------7-------5---|
A|---5-------5-------2-------2-------3-------5-------5---|
E|---3-------3-------0-------0-----------------------3---|

Pre-Chorus Part 2 Guitar A
e|-------------------------------------------------------|
B|------------------------------------"-------"----------|
G|----"-------"-------"-------"------5-------7--------"--|
D|---5-------5-------7-------7-------5-------7-------5---|
A|---5-------5-------7-------7-------3-------5-------5---|
E|---3-------3-------5-------5-----------------------3---|

Guitar B "=Play 5-7x
e|-------------------------------------------------------|
B|----"-------"-------"-------"-------"-------"----------|
G|---7-------7-------6-------6---7-6-5-------7--------"--|
D|---------------------------------------------------5---|
A|---5-------5-------4-------4---5-4-3-------5-------5---|
E|---------------------------------------------------3---|

Chorus Guitar A&B "=Play 6-10x
e|-----------------------------------------|
B|------------"---------------"------------|
G|----"------7--------"------5-----4-5-4---|
D|---7-------7-------5-------5-----4-5-4---|
A|---7-------5-------5-------3-----2-3-2---|
E|---5---------------3---------------------|

Chorus Part 2 Guitar A "=Play 10x
e|----------------------------------------------------------------|
B|------------"---------------------------------------------------|
G|----"------7--------------10--------10--------10--------10-12\--|
D|---7-------7-------5-5-5-510-5-5-5-510-5-5-5-510-5-5-5-510-12\--|
A|---7-------5-------5-5-5-5-8-5-5-5-5-8-5-5-5-5-8-5-5-5-5-8-10\--|
E|---5---------------3-3-3-3---3-3-3-3---3-3-3-3---3-3-3-3--------|

Guitar B
e|----------------------------------------------------------------|
B|------------"---------------------------------------------------|
G|----"------7----------------------------------------------------|
D|---7-------7-------5-5-5-5-3-5-5-5-5-3-5-5-5-5-3-5-5-5-5-3--5\--|
A|---7-------5-------5-5-5-5-3-5-5-5-5-3-5-5-5-5-3-5-5-5-5-3--5\--|
E|---5---------------3-3-3-3-1-3-3-3-3-1-3-3-3-3-1-3-3-3-3-1--3\--|

Verse Guitar A
e|------------------------------------|
B|---8-8-8-8-8-8-8-8-8-8-8-8-7-7-7-7--|
G|---7-7-7-7-7-7-7-7-5-5-5-5-7-7-7-7--|x2
D|------------------------------------|
A|------------------------------------|
E|------------------------------------|

Verse Part 2 Guitar A
e|------------------------------------------------------|
B|-------------------8-8-8-8-6-6-6-6-8-8-8-8-8-8-8-8----|
G|--12--10---9---8---7-7-7-7-5-5-5-5-5-5-5-5-5-5-5-5----|
D|--12--10---9---8--------------------------------------|
A|--10---8---7---6--------------------------------------|
E|------------------------------------------------------|

Pre-Chorus Guitar A&B "=Play 7x
e|-------------------------------------------------------|
B|------------------------------------"-------"----------|
G|----"-------"-------"-------"------5-------7--------"--|
D|---5-------5-------2-------2-------5-------7-------5---|
A|---5-------5-------2-------2-------3-------5-------5---|
E|---3-------3-------0-------0-----------------------3---|

Pre-Chorus Part 2 Guitar A
e|-------------------------------------------------------|
B|------------------------------------"-------"----------|
G|----"-------"-------"-------"------5-------7--------"--|
D|---5-------5-------7-------7-------5-------7-------5---|
A|---5-------5-------7-------7-------3-------5-------5---|
E|---3-------3-------5-------5-----------------------3---|

Guitar B "=Play 5-7x
e|-------------------------------------------------------|
B|----"-------"-------"-------"-------"-------"----------|
G|---7-------7-------6-------6---7-6-5-------7--------"--|
D|---------------------------------------------------5---|
A|---5-------5-------4-------4---5-4-3-------5-------5---|
E|---------------------------------------------------3---|

Chorus Guitar A&B "=Play 6-10x
e|-----------------------------------------|
B|------------"---------------"------------|
G|----"------7--------"------5-----4-5-4---|
D|---7-------7-------5-------5-----4-5-4---|
A|---7-------5-------5-------3-----2-3-2---|
E|---5---------------3---------------------|

Chorus Part 2 Guitar A "=Play 10x
e|----------------------------------------------------------------|
B|------------"---------------------------------------------------|
G|----"------7--------------10--------10--------10--------10-12\--|
D|---7-------7-------5-5-5-510-5-5-5-510-5-5-5-510-5-5-5-510-12\--|
A|---7-------5-------5-5-5-5-8-5-5-5-5-8-5-5-5-5-8-5-5-5-5-8-10\--|
E|---5---------------3-3-3-3---3-3-3-3---3-3-3-3---3-3-3-3--------|

Guitar B
e|----------------------------------------------------------------|
B|------------"---------------------------------------------------|
G|----"------7----------------------------------------------------|
D|---7-------7-------5-5-5-5-3-5-5-5-5-3-5-5-5-5-3-5-5-5-5-3--5\--|
A|---7-------5-------5-5-5-5-3-5-5-5-5-3-5-5-5-5-3-5-5-5-5-3--5\--|
E|---5---------------3-3-3-3-1-3-3-3-3-1-3-3-3-3-1-3-3-3-3-1--3\--|

Bridge Guitar A
e|------------------------------------------------------------------|
B|------------------------------------------------------------------|
G|---7-7--7-7-----7-7-7-7---7-7-7-7---7-7-7-7---7-7--7-7---7-7-7-7--|
D|--1010-1010-----7-7-7-7---9-9-9-9---5-5-5-5--1010-1010---7-7-7-7--|
A|------------------------------------------------------------------|
E|------------------------------------------------------------------|
p.m.....          ...       ...       ...      ....        ...

Outro
The same as Intro Part 2

Outro Part 2 Guitar A
e|---------------------------------------------------------------------------|
B|---------------------------------------------------------------------------|
G|---------------------------------------------------------------------------|
D|-------------------------------------------------------5-5-5-5-7-7-4-4-5---|
A|-------5-5-5-5-5--3--2-3-3-3-2---------5-5-5-5-5--3--2---------------------|
E|-------------------------------3-3-3-3-------------------------------------|

Guitar B
e|-----------------------------------------------------------------------------|
B|-----------------------------------------------------------------------------|
G|---"---"----"----"----"----"----"-----"--------------------------------------|
D|-5----5----3----2----5----5----2-----4----5----------------------------------|
A|-5----5----3----3----5----5----3-----5----5----------------------------------|
E|-3----3----1----3----3----3----3-----5----3----------------------------------|
Tap to rate this tab
# A B C D E F G H I J K L M N O P Q R S T U V W X Y Z