Song name
# A B C D E F G H I J K L M N O P Q R S T U V W X Y Z

Nofx - Quart In Session tab

NOFX

So Long And Thanks For All The Shoes

Quart In Session

Tabbed by Grunge is Dead


    Intro:            Verse:

e|-----------------|--------------------------|
B|-----------------|--------------------------|
G|-----------5-----|-----5-----------5-----7--|
D|--5--5--2--5--5--|--5--5--5--7--2--5--5--7--|
A|--5--5--2--3--5--|--5--3--5--7--2--3--5--5--|
E|--3--2--0-----3--|--3-----3--5--0-----3-----|


Chorus:

e|-----------------|
B|-----------------|
G|-----------5-----|
D|--5--5--2--5--5--|
A|--5--5--2--3--5--|
E|--3--2--0-----3--|


Bridge:

e|-----------|
B|-----------|
G|-----5-----|
D|--7--5--5--| x2
A|--7--3--5--|
E|--5-----3--|

e|--------|
B|--------|
G|--8-----|
D|--8--3--|
A|--6--3--|
E|-----1--|


Outro:

e|--------------|
B|--------------|
G|-----------5--|
D|--5--5--2--5--|
A|--5--5--2--3--|
E|--3--2--0-----|

Second guitar plays:

e|-----------|
B|-----------|
G|-----------|
D|--5-4-5-4--|
A|-----------|
E|-----------|


End:

e|-----------|
B|-----------|
G|-----5-----|
D|--5--5--5--|
A|--5--3--5--|
E|--3-----3--|


Not sure the end of the bridge is totally right but I'm in standard and it's late so 
it'll have to do.

Here's a link so you can work out the strumming:

http://www.youtube.com/watch?v=niWyCcbRl9g
Tap to rate this tab
# A B C D E F G H I J K L M N O P Q R S T U V W X Y Z