Song name
# A B C D E F G H I J K L M N O P Q R S T U V W X Y Z

Nofx - The Longest Line tab

This is my first tab ever so dont be too hard on me, but I think this is very much correct.

Order:

Verse v1
Pre-Chorus
Verse
Pre-Chorus
Chorus
Solo
Verse v2
Chorus
Chorus

Verse v1:

e|--------------------------------------------------------------------|
B|--------------------------------------------------------------------|
G|-5-5-5-5-5-5-5-5----------------------------------------------------|
D|-5-5-5-5-5-5-5-5-5-5-5-5-5-5-5-5-7-7-7-7-7-7-7-7-7-7-7-7-7-7-7-7-55-|
A|-3-x-x-x-x-x-x-x-5-5-5-5-5-5-5-5-7-7-7-7-7-7-7-7-7-7-7-7-7-7-7-7-55-|
E|-----------------3-x-x-x-x-x-x-x-5-x-x-x-x-x-x-x-x-x-x-x-x-x-x-x-3x-|

-------------------------------------------------------------|
-------------------------------------------------------------|
-5-5-5-5-5-5-5-5---------------------------------------------|
-5-5-5-5-3-3-3-3-5-5-5-5-5-5-5-5-3-3-3-3-3-3-3-3-3-3-3-7-5-5-|
-3-x-x-x-x-x-x-x-5-5-5-5-5-5-5-5-3-3-3-3-3-3-3-3-3-3-3-7-5-5-|
-----------------3-x-x-x-x-x-x-x-1-x-x-x-x-x-x-x-x-x-x-5-3-3-| x2

Pre-Chorus:

Let it ring!
e|---------------------------------|
B|---------------------------------|
G|---------------------------------|
D|-3-------5-------7-------8-------|
A|-3-------5-------7-------8-------|
E|-1-------3-------5-------6-------| x1

Verse v1:

e|--------------------------------------------------------------------|
B|--------------------------------------------------------------------|
G|-5-5-5-5-5-5-5-5----------------------------------------------------|
D|-5-5-5-5-5-5-5-5-5-5-5-5-5-5-5-5-7-7-7-7-7-7-7-7-7-7-7-7-7-7-7-7-55-|
A|-3-x-x-x-x-x-x-x-5-5-5-5-5-5-5-5-7-7-7-7-7-7-7-7-7-7-7-7-7-7-7-7-55-|
E|-----------------3-x-x-x-x-x-x-x-5-x-x-x-x-x-x-x-x-x-x-x-x-x-x-x-3x-|

-------------------------------------------------------------|
-------------------------------------------------------------|
-5-5-5-5-5-5-5-5---------------------------------------------|
-5-5-5-5-3-3-3-3-5-5-5-5-5-5-5-5-3-3-3-3-3-3-3-3-3-3-3-7-5-5-|
-3-x-x-x-x-x-x-x-5-5-5-5-5-5-5-5-3-3-3-3-3-3-3-3-3-3-3-7-5-5-|
-----------------3-x-x-x-x-x-x-x-1-x-x-x-x-x-x-x-x-x-x-5-3-3-| x2

Pre-Chorus:

Let it ring!
e|---------------------------------|
B|---------------------------------|
G|---------------------------------|
D|-3-------5-------7-------8-------|
A|-3-------5-------7-------8-------|
E|-1-------3-------5-------6-------| x1

Chorus:

e|-----------------------------------------------------------------|
B|-----------------------------------------------------------------|
G|-5-5-5-5---------------------------------5-5-5-5-7-7-7-7---------|
D|-5-5-5-5-5-5-5-5-7-7-7-7-2-2-2-2-3-3-3-3-5-5-5-5-7-7-7-7-3-3-3-3-|
A|-3-3-3-3-5-5-5-5-7-7-7-7-2-2-2-2-3-3-3-3-3-3-3-3-5-5-5-5-3-3-3-3-|
E|---------3-3-3-3-5-5-5-5-0-0-0-0-1-1-1-1-----------------1-1-1-1-|x1

Solo:

e|-----------------------------------5-8-5---------|
B|---------------------------6-5---8-------8-5-----|
G|-------------------------5-----5-------------7-5-|
D|-5-3-2------2-3-2----5/7-------------------------|
A|------5-3-5-------5-3----------------------------|
E|-------------------------------------------------|

Verse v2:

e|--------------------------------------------------------------------|
B|--------------------------------------------------------------------|
G|-5-5-5-5-5-5-5-5----------------------------------------------------|
D|-5-5-5-5-5-5-5-5-5-5-5-5-5-5-5-5-7-7-7-7-7-7-7-7-7-7-7-7-7-7-7-7-55-|
A|-3-x-x-x-x-x-x-x-5-5-5-5-5-5-5-5-7-7-7-7-7-7-7-7-7-7-7-7-7-7-7-7-55-|
E|-----------------3-x-x-x-x-x-x-x-5-x-x-x-x-x-x-x-x-x-x-x-x-x-x-x-3x-|

-------------------------------------------------------------|
-------------------------------------------------------------|
-5-5-5-5-5-5-5-5---------------------------------------------|
-5-5-5-5-3-3-3-3-5-5-5-5-5-5-5-5-3-3-3-3-3-3-3-3-3-3-3-7-5-5-|
-3-x-x-x-x-x-x-x-5-5-5-5-5-5-5-5-3-3-3-3-3-3-3-3-3-3-3-7-5-5-|
-----------------3-x-x-x-x-x-x-x-1-x-x-x-x-x-x-x-x-x-x-5-3-3-|

-----------------------------------------------|
-----------------------------------------------|
-5-5-5-5-5-5-5-5-------------------------------|
-5-5-5-5-5-5-5-5-5-5-5-5-5-5-5-5-7-7-7-7-7-7-7-|
-3-x-x-x-x-x-x-x-5-5-5-5-5-5-5-5-7-7-7-7-7-7-7-|
-----------------3-x-x-x-x-x-x-x-5-x-x-x-x-x-x-|

-------------------------------------------------------------------|
-------------------------------------------------------------------|
-------------------------------------------------------------------|
-5-5-5-5-5-5-5-5-3-3-3-3-3-3-3-3-3-3-3-3-3-3-3-3-5-5-5-5-5-5-5-5-5-|
-5-5-5-5-5-5-5-5-3-3-3-3-3-3-3-3-3-3-3-3-3-3-3-3-5-5-5-5-5-5-5-5-5-|
-3-x-x-x-x-x-x-x-1-x-x-x-x-x-x-x-x-x-x-x-x-x-x-x-3-x-x-x-x-x-x-x-x-| x1

Chorus:

e|-----------------------------------------------------------------|
B|-----------------------------------------------------------------|
G|-5-5-5-5---------------------------------5-5-5-5-7-7-7-7---------|
D|-5-5-5-5-5-5-5-5-7-7-7-7-2-2-2-2-3-3-3-3-5-5-5-5-7-7-7-7-3-3-3-3-|
A|-3-3-3-3-5-5-5-5-7-7-7-7-2-2-2-2-3-3-3-3-3-3-3-3-5-5-5-5-3-3-3-3-|
E|---------3-3-3-3-5-5-5-5-0-0-0-0-1-1-1-1-----------------1-1-1-1-|x2
Tap to rate this tab
# A B C D E F G H I J K L M N O P Q R S T U V W X Y Z