Song name
# A B C D E F G H I J K L M N O P Q R S T U V W X Y Z

Nofx - Flossing A Dead Horse tab

NOFX
Album: So Long and Thanks For All The Shoes
Song: Flossing a Dead Horse



*Intro 2x
|-5-5--4-4--2-2-------|
|-5-5--5-5--2-2--7-7--|
|-6-6--6-6--2-2--7-7--|
|-7-7--6-6--4-4--7-7--|
|-7-7--4-4--4-4--5-5--|
|-5-5-------2-2-------|


*Verse #1
|-5-5--2-2-------------5-5--4-4--2-2--------|
|-5-5--2-2--7-7--7-7---5-5--5-5--2-2--7-7---|
|-6-6--3-3--7-7--7-7---6-6--6-6--2-2--7-7---|
|-7-7--4-4--7-7--6-6---7-7--6-6--4-4--7-7---|
|-7-7--4-4--5-5--7-7---7-7--4-4--4-4--5-5---|
|-5-5--2-2-------------5-5-------2-2--------|


*Chorus
Rhythm
|-----------------------------------------------|
|-7---------------2-2----7-----------7-7-7-7-9--|
|-7--1-3-3----1-1-2-2----7--1-3-3----7-7-7-7-9--|
|-7--2-4-4----2-2-2-2----7--2-4-4----7-7-7-7-9--|
|-5--2-4-4----2-2-0-0----5--2-4-4----5-5-5-5-7--|
|----0-2-2----0-0-----------0-2-2---------------|
-                                               -
Lead
|-----------------------------------------------|
|-------------10-9-7----------------------------|
|--------------------9-7-6----------------------|
|--------------------------9-7-7----------------|
|-----------------------------------------------|
|-----------------------------------------------|



*Verse #2 (let ring out)
|-5----2---------------5----4----2----------|
|-5----2----7----7-----5----5----2----7-----|
|-6----3----7----7-----6----6----2----7-----|
|-7----4----7----6-----7----6----4----7-----|
|-7----4----5----7-----7----4----4----5-----|
|-5----2---------------5---------2----------|



-Repeat Chorus



*Verse #3
|-------------------------------------------|
|-------------------------------------------|
|-----------7----9----------6---------7-----|
|-7----4----7----9-----7----6----4----7-----|
|-7----4----5----7-----7----4----4----5-----|
|-5----2---------------5---------2----------|
-                                           -
|-------------------------------------------|
|-------------------------------------------|
|-----------7---------------6---------7-----|
|-7----4----7----2-----7----6----4----7-----|
|-7----4----5----2-----7----4----4----5-----|
|-5----2---------0-----5---------2----------|



*End Chorus
|--------------------------------------------4--5-|
|-7-----------9-9--------7-----------7--9----4--5-|
|-7--1-3-3----9-9-7-7----7--1-3-3----7--9----5--6-|
|-7--2-4-4----9-9-7-7----7--2-4-4----7--9----6--7-|
|-5--2-4-4----7-7-7-7----5--2-4-4----5--7----6--7-|
|----0-2-2--------5-5-------0-2-2------------4--5-|




Feedback: E_Town_Punk@hotmail.com
Tap to rate this tab
# A B C D E F G H I J K L M N O P Q R S T U V W X Y Z