Song name
# A B C D E F G H I J K L M N O P Q R S T U V W X Y Z

Nofx - Kill All The White Men tab

 -Artist- : NOFX
 -Song- : Kill All The White Man
 -Tabbed By- : _Eightfold_


Legend:

-Symbol-|---Meaning------|
--------|----------------| 
h          hammer        |
p          pull off      |
/          slide down    |
\          slide up      |
v          strum down    |
A          strum up      |
x          rake          |
~          let note ring |
-------------------------|
    


  -Sax Intro-  :02

e|------------------------------------|
B|-10h11p10--8-6-5-3-3-8/---6-6-6-6---|
G|------------------------------------|
D|------------------------------------|
A|------------------------------------|
E|------------------------------------|

Verse 1   :07
     v     v     v     v     v     v     v     v  
e|-x-1--x--1--x--1--x--1--x--3--x--3--x--5--x--5------|
B|-x-1--x--1--x--1--x--1--x--3--x--3--x--5--x--5------|
G|-x-2--x--2--x--2--x--2--x--3--x--3--x--5--x--5------|
D|----------------------------------------------------|
A|----------------------------------------------------|
E|----------------------------------------------------|

Fill 1    :23

e|-------------------------------------|
B|-10-10-10-10-10-10-8-8-6-------------|
G|-------------------------------------|
D|-------------------------------------|
A|-------------------------------------|
E|-------------------------------------|


Chorus 1    :43
    v     v     v     v     v     v     v     v  
e|-x-1--x--1--x--1--x--1--x--3--x--3--x--5--x--5------|
B|-x-1--x--1--x--1--x--1--x--3--x--3--x--5--x--5------|
G|-x-2--x--2--x--2--x--2--x--3--x--3--x--5--x--5------|
D|----------------------------------------------------|
A|----------------------------------------------------|
E|----------------------------------------------------|


Interlude    :56

e|---------------------8/--------------|
B|--8-10--11-10--11-10-----------------|
G|-------------------------------------|
D|-------------------------------------|
A|-------------------------------------|
E|-------------------------------------|


Verse 2    1:02
     v     v     v     v     v     v     v     v  
e|-x-1--x--1--x--1--x--1--x--3--x--3--x--5--x--5------|
B|-x-1--x--1--x--1--x--1--x--3--x--3--x--5--x--5------|
G|-x-2--x--2--x--2--x--2--x--3--x--3--x--5--x--5------|
D|----------------------------------------------------|
A|----------------------------------------------------|
E|----------------------------------------------------|

Fill 2    1:12

e|-------------------------------------|
B|-10-10-10-10-10-10-8-6---------------|
G|-------------------------------------|
D|-------------------------------------|
A|-------------------------------------|
E|-------------------------------------|


Fill 3    1:24

e|-------------------------------------|
B|-10-10-10-10-10-10-8-6---------------|
G|-------------------------------------|
D|-------------------------------------|
A|-------------------------------------|
E|-------------------------------------|


Chorus 2    1:25
     v     v     v     v     v     v     v     v  
e|-x-1--x--1--x--1--x--1--x--3--x--3--x--5--x--5------|
B|-x-1--x--1--x--1--x--1--x--3--x--3--x--5--x--5------|
G|-x-2--x--2--x--2--x--2--x--3--x--3--x--5--x--5------|
D|----------------------------------------------------|
A|----------------------------------------------------|
E|----------------------------------------------------|


Bridge    1:40

e|----------------------------------------------------|
B|----------------------------------------------.-----|
G|--------------5-5-5-5-------------------------------|
D|-3-3-3-3------5-5-5-5--x2--5-5-5-5------------------|
A|-3-3-3-3--x2--3-3-3-3------5-5-5-5--x2--------.-----|
E|-1-1-1-1-------------------3-3-3-3------------------|


 Fill 3    1:47
e|------------------------------------------------------|
B|------------------------------------------------------|
G|------------------------------------------------------|
D|--3~-----3~-----2~-----0~-----3~----------------------|
A|------------------------------------------------------|
E|------------------------------------------------------|


 Ending    2:00

e|------------------------------------------------------|
B|------------------------------------------------------|
G|-5-5-5-5---------------7-7-7-7------------------------|
D|-5-5-5-5----5-5-5-5----7-7-7-7----3-3-3-3-------------|
A|-3-3-3-3----5-5-5-5----5-5-5-5----3-3-3-3-------------|
E|------------3-3-3-3---------------1-1-1-1-------------|
Repeat until fade
Tap to rate this tab
# A B C D E F G H I J K L M N O P Q R S T U V W X Y Z