Guitaretab - guitar tabs
Song name
# A B C D E F G H I J K L M N O P Q R S T U V W X Y Z

Nofx - Liza And Louise tab

--------------------------------------------------------------
NOFX - Liza and Louise 
White Trash, Two Heebs and a Bean (1992) transcribed by helen
--------------------------------------------------------------
I couldnt find a version of this song with these parts in it so i made it myself! enjoy

Intro

e|-------12------------------|
B|-14b-----14-14-12----------|
G|----14------------14p11h14-|
D|---------------------------|
A|---------------------------|
E|---------------------------|

e|-----------------------------------------------------------|
B|---------------------14-14---14---14-----------------------|
G|------------14-16-16-------16---16---16--16p14-14h16-14h16-|
D|-------14h16-----------------------------------------------|
A|-14h16-----------------------------------------------------|
E|-----------------------------------------------------------|
[ Tab from: http://www.guitaretab.com/n/nofx/41972.html ]
e|--------------------------------------------------------------|
B|--------------------------------------------------------------|
G|-14-----------------------------------------------------------|
D|----16-14-----------------------------------------------------|
A|---------16-14h16-14h16-12h14-12---(12)---Liza's had enough..|
E|----------------------------------14--------------------------|


Solo 

And you know she wanted more...
	
e|-14b-14-12b----------------12---------------------------------|
B|-----------14p13-14p13---14-14-14-14-------------------------|
G|----------------------14------------------14p11-14--11--------|
D|-------------------------------------------------------14-----|
A|--------------------------------------------------------------|
E|--------------------------------------------------------------|
	
e|----------------------------------------14-14-12--------------|
B|----------------------------------14-17---------14-13-12------|
G|----------14----14---14---14---14-----------------------14----|
D|----14h16-----16---16---16------------------------------------|
A|--------------------------------------------------------------|
E|--------------------------------------------------------------|


e|--------------------------------------------------------------|
G|-----14-14-14p12----------------------------------------------|
B|-11---------------14p11-14------------------------------------|
D|--------------------------------------------------------------|
A|--------------------------------------------------------------|
E|--------------------------------------------------------------|
Related for Liza And Louise tab