Guitaretab - guitar tabs
Song name
# A B C D E F G H I J K L M N O P Q R S T U V W X Y Z
Home / N / Nofx / Reeko tab

Nofx - Reeko tab

                                Reeko
                   By NOFX as heard on Punk in Drublic

I took a look at some of the other Reeko tabs. Version 2 had the ska part really close. 
one seems good.

Drum Intro.

e |-55-5-55-5--33-3-33-3--33-3-33-3-------------00-0-00-0----------------|
B |-66-6-66-6--11-1-11-1--33-3-33-3--66-6-66-6--11-1-11-1--66-6-66-6-----|
G |-77-7-77-7--00-0-00-0--00-0-00-0--77-7-77-7--00-0-00-0--77-7-77-7-----|
D |-77-7-77-7--22-2-22-2--00-0-00-0--77-7-77-7--22-2-22-2--77-7-77-7-----|
A |------------33-3-33-3-------------55-5-55-5--33-3-33-3--55-5-55-5-----|
E |----------------------------------------------------------------------|

e |-00-0-00-0-------------00-0-00-0--33-3-33-3----------------------|   This whole line is
B |-11-1-11-1--66-6-66-6--11-1-11-1--11-1-11-1----------------------|   played three times.
G |-22-2-22-2--77-7-77-7--00-0-00-0--00-0-00-0----------------------|   Twice for the verse,
D |-22-2-22-2--77-7-77-7--22-2-22-2--22-2-22-2----------------------|   once for the rhythm
A |-00-0-00-0--55-5-55-5--33-3-33-3--33-3-33-3-----|   to the solo--|
E |-----------------------------------------------------------------|

                                    Solo

e |----------------------------8------------------------------------|
B |------------------------10*---8----------------------------------| *that
G |----5-7-5-7^7^7^(9)-7-5------------9-9-9-7-5-7-5-------5---------|  is a
D |-/7----------------------------------------------7-5-7---7~~~----|  ten.
A |-----------------------------------------------------------------|
E |-----------------------------------------------------------------|

e |------------------------------------------------------------------------|
B |--------------------------------8-------8--------10-10-8----------------|
G |---------------------7-5----------9~~~~---5^(7)----------7-5---7-5~~~~--|
D |------------2--3--5------7~~--7------------------------------7----------|
A |----3-5-3--3--3--3------------------------------------------------------|
E |-/5---------------------------------------------------------------------|
[ Tab from: http://www.guitaretab.com/n/nofx/41975.html ]
e |---------------------------------|   Sorry the solo isn't perfect. I know
B |---------------------------------|   there are some notes that aren't just
G |------------5-9-7-5---5----------|   single notes. And this last line I
D |--2-3-3-5-5---------7------------|   sketched out on. I couldn't really tab
A |-3-------------------------------|   out exactly how it's played. But those
E |---------------------------------|   are the notes.

     On the last note of the solo, the rhythm guitar hits this chord.

e |-0--|
B |-1--|
G |-0--|
D |-2--|
A |-3--|
E |----|

  Fast punk part.
e |-------------------------------------------------------------------------|
B |-------------------------------------------------------------------------|
G |----------55555555----------1010101010101010-55555555-77777777-----------|
D |-33333333-55555555-55555555-1010101010101010-55555555-77777777-77777777--|
A |-33333333-33333333-55555555--8-8-8-8-8-8-8-8-33333333-55555555-77777777--|
E |-11111111----------33333333------------------------------------55555555--|

e |-------------------------------------|   Play this twice.
B |-------------------------------------|
G |-------------------------------------|
D |-55555555-33333333-555-333-222-000---|
A |-55555555-33333333-333-333-333-333---|
E |-33333333-11111111-------------------|

e |-----------------------------------------------|
B |-----------------------------------------------|
G |-----------------------------------------5-----|
D |-555-333-222-000-555-333-222-000-222-000-5-----|
A |-333-333-333-333-333-333-333-333-333-333-3-----|
E |-----------------------------------------------|

Alright, there you have it. The solo took a while to learn, (and tab out) but I'm pretty 
the ska part is correct. Contact me if there are any problems. Please comment.

                                      Legend
                               ______________________
                               | / slide up to       |
                               | ~ vibrato           |
                               | ^ bend to note in ()|
                               |_____________________|
Related for Reeko tab
Reeko chords by Nofx