Song name
# A B C D E F G H I J K L M N O P Q R S T U V W X Y Z

Nofx - Drain Bramaged tab

DRAIN BRAMAGED by NOFX. Album: Maximum Rocknroll (1988)
This song's name tells the main thing of the song itself.
:
# intro #
E-----------------------------------------|
B-----------------------------------------|
G-----------------------------------------|
D-----------------------------------------|
A---7---7---7-7-7-7-7-7-7-7-7-7-7-7-7-7---|
E-----------------------------------------|
:
# verse # X7    !palm-muted!
E-------------------------------------|
B-------------------------------------|
G-------------------------7-7-7-7-7---|
D---8-7-3-2-2-2-2-2-8-7-3-7-7-7-7-7---|
A---8-7-3-2-2-2-2-2-8-7-3-5-5-5-5-5---|
E---6-5-1-0-0-0-0-0-6-5-1-------------|
:
# outro #
E---/-----palm-muted----\-------------------------|
B-------------------------------------------------|
G-------------------------7-------9--10-------7---|
D---8-7-3-2-2-2-2-2-8-7-3-7-------9--10-------7---|
A---8-7-3-2-2-2-2-2-8-7-3-5-------7---8-------5---|
E---6-5-1-0-0-0-0-0-6-5-1-------------------------|
:
?"@$%&"!??^?*'-::>|>
                        
                    
Tap to rate this tab
# A B C D E F G H I J K L M N O P Q R S T U V W X Y Z