Song name
# A B C D E F G H I J K L M N O P Q R S T U V W X Y Z

Nofx - Philthy Phil Philanthropist tab

I hope you enjoy this tab, i spent a whole half an hour on it.


Tuning: standard

e|--|----------------|----------------|
B|--|----------------|----------------|
G|--|----------------|-------5-55-5-55|
D|--|5-5-5555-55-5-55|3-3-3333-33-3-33|
A|--|5-5-5555-55-5-55|3-3-3333-33-3-33|
E|--|3-3-3333-33-3-33|1-1-111---------|x4

e|--|----------------|----------------|
B|--|----------------|----------------|
G|--|----------------|----------------|
D|--|----------------|----------------|
A|--|5-5-5555-55-3-2-|3-3-33----------|
E|--|----------------|------53-33-3-33|

e|--|----------------|----------------|----------------|
B|--|----------------|----------------|----------------|
G|--|----------------|----------------|----------------|
D|--|----------------|5-5-5557-77-4-44|5---------------|
A|--|5-5-5555-55-3-2-|----------------|----------------|
E|--|----------------|----------------|----------------|
Tap to rate this tab
# A B C D E F G H I J K L M N O P Q R S T U V W X Y Z