Song name
# A B C D E F G H I J K L M N O P Q R S T U V W X Y Z

Nofx - Medio-core tab

Hiya it was annoying me coz no1 made the right tabs realy


e|-------------3------------3-----------------|
B|-------3---2--------2-2-1--------1-1/3-3----|
G|-0---0---0--------0--0---------0--0---------|
D|--------------------------------------------|
A|--------------------------------------------|
E|---3----------------------------------------|


e|-------------3------------3----------3------|
B|---3---3-3/2--------2-2-1--------1-1/3------|
G|-0---0--0--------0---0--------0---0--0------|
D|--------------------------------------------|
A|--------------------------------------------|
E|--------------------------------------------|



couldnt work out the bits in the verses


here is the chorus sort of thing:

e|----------------------------------------------------------------|
B|----------------------------------------------------------------|
G|-------------7--7--7-7---------------5--5--5-5---7--7-7-7-7-7---|
D|-5--5--5-5---7--7--7-7---7--7--7-7---5--5--5-5---7--7-7-7-7-7---|
A|-5--5--5-5---5--5--5-5---7--7--7-7---3--3--3-3---5--5-5-5-5-5---|
E|-3--3--3-3---------------5--5--5-5------------------------------|



the bridge slash solo bit:

e|-------------------------------------------------------------|
B|-------------------------------------------------4-4-4-4-4---|
G|---------------------------------5-5-5-5-5-5-5-5-5-5-5-5-5---|
D|-5-5-5-5-5-5-5-4-3-3-3-3-3-3-3-5-5-5-5-5-5-5-5-5-5-5-5-5-5---|
A|-5-5-5-5-5-5-5-4-3-3-3-3-3-3-3-5-3-3-3-3-3-3-3-3-3-3-3-3-3---|
E|-3-3-3-3-3-3-3-2-1-1-1-1-1-1-1-3-----------------------------!



Thats as far as i got
anything 2 say, my email is golden_crackerjack.com







Tap to rate this tab
# A B C D E F G H I J K L M N O P Q R S T U V W X Y Z