Guitaretab - guitar tabs
Song name
# A B C D E F G H I J K L M N O P Q R S T U V W X Y Z

Nofx - Zyclone B Bathouse tab

Band: NOFX
Song: Zyclone B Bathouse
Album: 45 Or 46 Songs That Weren't Good Enough To Good On Our Other Records

by titoNoFX - titonofx@gmail.com
date: 22/11/05

Greaaat song from NOFX

Guitar N1
   | . . . . . . . | . . . . . . . | . . . . . . . | . . . . . . .
e|-----------------------------------------------------------------|
B|-----------------------------------------------------------------|
G|-----------------------------------------------------------------|
D|-5555-555-333333-5555-555-333333-5555-555-333333-5555-555-3333---|
A|-5555-555-333333-5555-555-333333-5555-555-333333-5555-555-3333---|
E|-3333-333-111111-3333-333-111111-3333-333-111111-3333-333-1111---|

   | . . . . . . . | . . . . . . . | . . . . . . . | . . . . . . .
e|-----------------------------------------------------------------|
B|-----------------------------------------------------------------|
G|---------------------------------77-777-777-777-7----------------|  x2
D|-22-222-222-222-277-777-777-777-777-777-777-777-755-555-544-444-4|
A|-22-222-222-222-277-777-777-777-755-555-555-555-555-555-555-555-5|
E|-00-000-000-000-055-555-555-555-5----------------33-333-322-222-2|

   | . . . . . . . | . . . . . . . | . . . . . . . | . . . . . . .
e|-----------------------------------------------------------------|
B|-----------------------------------------------------------------|
G|-55-555-555-555-577-777-777-777-7--------77-777-7----------------|
D|-55-555-555-555-577-777-777-777-755-555-577-777-722-222-222-222-2|
A|-33-333-333-333-355-555-555-555-555-555-555-555-522-222-222-222-2|
E|---------------------------------33-333-3--------00-000-000-000-0|

   | . . . . . . . | . . . . . . .
e|---------------------------------|
B|---------------------------------|
G|-----------------55-555-555-555-5|
D|-77-777-777-777-755-555-555-555-5|
A|-77-777-777-777-733-333-333-333-3|
E|-55-555-555-555-5----------------|

   | . . . . . . . | . . . . . . . | . . . . . . . | . . . . . . .
e|-----------------------------------------------------------------|
B|-----------------------------------------------------------------|
G|-----------------------------------------------------------------|
D|-5555-555-333333-5555-555-333333-5555-555-333333-5555-555-3333---|
A|-5555-555-333333-5555-555-333333-5555-555-333333-5555-555-3333---|
E|-3333-333-111111-3333-333-111111-3333-333-111111-3333-333-1111---|
[ Tab from: http://www.guitaretab.com/n/nofx/47160.html ]
   | . . . . . . . | . . . . . . . | . . . . . . . | . . . . . . .
e|-----------------------------------------------------------------|
B|-----------------------------------------------------------------|
G|-99-999-999-999-9----------------77-777-777-777-7----------------|  x2
D|-99-999-999-999-977-777-777-777-777-777-777-777-755-555-544-444-4|
A|-77-777-777-777-777-777-777-777-755-555-555-555-555-555-555-555-5|
E|-----------------55-555-555-555-5----------------33-333-322-222-2|

   | . . . . . . . | . . . . . . . | . . . . . . . | . . . . . . .
e|-----------------------------------------------------------------|
B|-----------------------------------------------------------------|
G|-55-555-555-555-577-777-777-777-7--------77-777-799-999-999-999-9|
D|-55-555-555-555-577-777-777-777-755-555-577-777-799-999-999-999-9|
A|-33-333-333-333-355-555-555-555-555-555-555-555-577-777-777-777-7|
E|---------------------------------33-333-3------------------------|

   | . . . . . . . | . . . . . . .
e|---------------------------------|
B|---------------------------------|
G|-----------------55-555-555-555-5|
D|-77-777-777-777-755-555-555-555-5|
A|-77-777-777-777-733-333-333-333-3|
E|-55-555-555-555-5----------------|

   | . . . . . . . | . . . . . . . | . . . . . . . | . . . . . . .
e|-----------------------------------------------------------------|
B|-----------------------------------------------------------------|
G|-----------------------------------------------------------------|
D|-5555-555-333333-5555-555-333333-5555-555-333333-5555-555-333333-|
A|-5555-555-333333-5555-555-333333-5555-555-333333-5555-555-333333-|
E|-3333-333-111111-3333-333-111111-3333-333-111111-3333-333-111111-|

   | . . . . . . . | . . . . . . .
e|---------------------------------|
B|---------------------------------|
G|---------------------------------|
D|-5555-555-333333-5555-555-3333---|
A|-5555-555-333333-5555-555-3333---|
E|-3333-333-111111-3333-333-1111---|


Guitar N2 does exactly the same except in the first riff it doesn't
play and in the final riff it does this:

   | . . . . . . . | . . . . . . . | . . . . . . . | . . . . . . .
e|-----------------------------------------------------------------|
B|-----------------------------------------------------------------|
G|--------------------------------------------------12121212-------|
D|--------------------------------------------------12121212-------|
A|--------------------------------------------------10101010-------|
E|-----------------------------------------------------------------|

   | . . . . . . . | . . . . . . .
e|---------------------------------|
B|---------------------------------|
G|--12121212--------12121212-------|
D|--12121212--------12121212-------|
A|--10101010--------10101010-------|
E|---------------------------------|

that's all friends
Related for Zyclone B Bathouse tab