Song name
# A B C D E F G H I J K L M N O P Q R S T U V W X Y Z

Nofx - Glass War tab

Help us improve GuitareTab! Take a short survey!
Intro A&B  6x          
E|----------| 
H|----------| 
G|--7----7--|
D|--7----7--| 
A|--5----5--|
E|----------| 

Verse A *=play a long times (at the end no pm !!!)
E|-----------------------------------------------------------| 
H|-----------------------------------------------------------| 
G|-----------------------------------------------------------|
D|-----*-----------------------------------------------------|
A|----5------------------------------------------------------|
E|-----------------------------------------------------------|
  \___PM___/

Verse B *=play a long times 
E|-----------------------------------------------------------| 
H|-----------------------------------------------------------| 
G|-----------------------------------------------------------|
D|-----------------------------------------------------------|
A|----5555888877773333---------------------------------------|
E|-----------------------------------------------------------|
  \___________PM___________/

Verse2 A&B
E|------------------------------------------------| 
H|------------------------------------------------| 
G|--7-7--10-10--9-9--5-5--7-7--10-10--9-9--12-12--|
D|--7-7--10-10--9-9--5-5--7-7--10-10--9-9--10-10--|
A|--5-5---8--8--7-7--3-3--5-5---8--8--7-7---------|
E|------------------------------------------------|

Then Play Intro, Verse and then verse2(2x)

Chorus A    2x   *=8x
E|-------------------------| 
H|---*------*-----*--------| 
G|--7-----10-----5------*--|
D|--7-----10-----5-----7---|
A|--5------8-----3-----7---|
E|---------------------5---|

Chorus B    2x   *=8x
E|---------------*---------| 
H|---*----------5----------| 
G|--7-----------5----------|
D|--7------*-----------*---|
A|--5-----8-----------7----|
E|-------------------------|

'Chorus A      *=8x
E|-------------------------| 
H|---*------*-----*--------| 
G|--7-----10-----5------*--|
D|--7-----10-----5-----7---|
A|--5------8-----3-----7---|
E|---------------------5---|

'Chorus B      *=8x
E|-------------------------------------------| 
H|--------------------------5-5-5-5----------| 
G|--7-7-7-7-10--10--10--10---5-5-5-5---------|
D|---7-7-7-7--10--10--10--10---------7-7-7-7-|
A|----------------------------------7-7-7-7--|
E|-------------------------------------------|

Chorus A&B   2x   *=8x
E|-------------------------| 
H|---*------*-----*--------| 
G|--7-----10-----5------*--|
D|--7-----10-----5-----7---|
A|--5------8-----3-----7---|
E|---------------------5---|
  \__________pm___________/

End A      *=play a long time
E|---------------------------------------------| 
H|---*-----------------------------------------| 
G|--7------------------------------------------|
D|--7------------------------------------------|
A|--5-------------------------------------5-5--|
E|---------------------------------------------|

End B   
E|---------------------------------------------| 
H|---------------------------------------------| 
G|---------------------------------------------|
D|---------------------------------------------|
A|----5555888877773333-5555888877773333---5-5--|
E|---------------------------------------------|
  \___________PM_____________/
Related for Glass War tab