Song name
# A B C D E F G H I J K L M N O P Q R S T U V W X Y Z

Nofx - Decom-posuer tab

Song: Decom-Posuer
Band: Nofx
Album: The War on Errorism

Intro
e|--------------------------------------------------------------------------|
B|--------------------------------------------------------------------------|
G|-----------------------------------------------------12-11-10-------------|
D|-7-7-7-10-10-10-12-12-12-7-7-7-10-10-10-12-12-12-x2--x--x--x--------------|
A|-0-0-0-0--0--0--0--0--0--0-0-0-0--0--0--0--0--0------10-9--8--------------|
E|--------------------------------------------------------------------------|

e|--------------------------------------------------------------------------|
B|--------------------------------------------------------------------------|
G|----------------------------12-11-10--------------------------------------|
D|-7-9-7-10-7-9-7-9-7-10-7-9--x--x--x---------------------------------------|
A|-0-0-0-0--0-0-0-0-0-0--0-0--10-9--8---------------------------------------|
E|--------------------------------------------------------------------------|

Verse
e|--------------------------------------------------------------------------|
B|--------------------------------------------------------------------------|
G|--------10---------10----5-----5---5-7--5-7--5-7--5-7--5------5-5--7------|
D|--7-----10---7-----10----5-----5---x-x--x-x--x-x--x-x--5--8-3-5-5--7--3---|
A|--7-----8----7-----8-----3-----2---3-5--3-5--3-5--3-5--3--8-3-3-3--5--3---|
E|--5----------5--------------------------------------------6-1---------1---|

Solo
e|-----16b17--16b17--16b17--16b17--15---------------------------------------|
B|------------------------------------17-15----17-15------------------------|
G|------------------------------------------17-------17-14------------------|
D|--------------------------------------------------------------------------|
A|--------------------------------------------------------------------------|
E|--------------------------------------------------------------------------|

e|-----12-13-14b15--14b15-13------------------------------------------------|
B|---------------------------13----13-15-13---------------------------------|
G|------------------------------14----------14-12---------------------------|
D|------------------------------------------------10------------------------|
A|--------------------------------------------------------------------------|
E|--------------------------------------------------------------------------|

e|--------------------------------------------------------------------------|
B|-15-13-15-13-15-13-15-15-13-----------------------------------------------|
G|---------------------------12-10-12-10-12-10-12-12-10---------------------|
D|-----------------------------------------------------12-10-12-10-12-12-10-|
A|--------------------------------------------------------------------------|
E|--------------------------------------------------------------------------|
Tap to rate this tab
# A B C D E F G H I J K L M N O P Q R S T U V W X Y Z