Song name
# A B C D E F G H I J K L M N O P Q R S T U V W X Y Z

Nofx - Wore Out Soles Of My Party Boots tab

Standart tuning (EADGBE)
medium distortion

Intro
e|------------------------------------------------|
B|------------------------------------------------|
G|------------------------------------------------|
D|------------------------------------------------|
A|-7--6--4--6----77--66--44--66-------Pick scrape-|
E|------------------------------------------------|

intro Part 2
e|------------------------------------------------|
B|------------------------------------------------|
G|------------------------------------------------|
D|--9-9---9-9---------9-9-------------------------|since im lazy figuer out
A|--7-7---6-6---7-7---7-7--7-7--9-9-11------------|strumming
E|--------------5-5--------5-5--6-7-8-------------|

Riff 1
e|------------------------------------------------|
B|------------------------------------------------|
G|------------------------------------------------|
D|--------------------------------9999------------|
A|--7777--9999--111111--99999999--7777------------|
E|--5555--7777--9999----77777777------------------|

Riff 2
e|--------------------------------------------------|
B|--------------------------------------------------|
G|--------------------------------------------------|
D|-----------------------9999-----------------------|
A|-11111111--9999--7777--7777----7----9----9----11--|
E|-9-9-9-9---7777--5555--------55-5-66-6-77-7-88----|

Riff 1
e|------------------------------------------------|
B|------------------------------------------------|
G|------------------------------------------------|
D|--------------------------------9999------------|
A|--7777--9999--111111--99999999--7777------------|
E|--5555--7777--9999----77777777------------------|

chorus
e|------------------------------------------------|
B|------------------------------------------------|
G|------------------------------------------------|
D|6-6-6-6-6-6-6-6-6-6-6-6-6-6-6-6-----------------|
A|4-4-4-4-4-4-4-4-4-4-4-4-4-4-4-4-----------------|
E|---------------------------------55-44-22-5-7~--|
       there are 16


Riff 2
e|--------------------------------------------------|
B|--------------------------------------------------|
G|--------------------------------------------------|
D|-----------------------9999-----------------------|
A|-11111111--9999--7777--7777----7----9----9----11--|
E|-9-9-9-9---7777--5555--------55-5-66-6-77-7-88----|

Riff 1
e|------------------------------------------------|
B|------------------------------------------------|
G|------------------------------------------------|
D|--------------------------------9999------------|
A|--7777--9999--111111--99999999--7777------------|
E|--5555--7777--9999----77777777------------------|

Riff 2
e|--------------------------------------------------|
B|--------------------------------------------------|
G|--------------------------------------------------|
D|-----------------------9999-----------------------|
A|-11111111--9999--7777--7777----7----9----9----11--|
E|-9-9-9-9---7777--5555--------55-5-66-6-77-7-88----|

Riff 1
e|------------------------------------------------|
B|------------------------------------------------|
G|------------------------------------------------|
D|--------------------------------9999------------|
A|--7777--9999--111111--99999999--7777------------|
E|--5555--7777--9999----77777777------------------|

chorus 2
e|------------------------------------------------|
B|------------------------------------------------|
G|------------------------------------------------|
D|6-6-6-6-6-6-6-6-6-6-6-6-6-6-6-6-----------------|
A|4-4-4-4-4-4-4-4-4-4-4-4-4-4-4-4-----------------|
E|---------------------------------55-44-22-5-7~--|

e|------------------------------------------------|
B|------------------------------------------------|
G|------------------------------------------------|
D|6-6-6-6-6-6-6-6-6-6-6-6-6-6-6-6-----------------|
A|4-4-4-4-4-4-4-4-4-4-4-4-4-4-4-4-----------------|
E|------------------------------------------------|

interlude part
e|------------------------------------------------|
B|------------------------------------------------|
G|------------------------------------------------|
D|-----------99999999-----------------------------|
A|-77777777--77777777--99999999--1010101010101010-|
E|-55555555------------77777777--8-8-8-8-8-8-8-8--|

i couldt figure out the solo but the backup guitar goes like this:

Riff 2
e|--------------------------------------------------|
B|--------------------------------------------------|
G|--------------------------------------------------|
D|-----------------------9999-----------------------|
A|-11111111--9999--7777--7777----7----9----9----11--|
E|-9-9-9-9---7777--5555--------55-5-66-6-77-7-88----|

Riff 1
e|------------------------------------------------|
B|------------------------------------------------|
G|------------------------------------------------|
D|--------------------------------9999------------|
A|--7777--9999--111111--99999999--7777------------|
E|--5555--7777--9999----77777777------------------|

Riff 2
e|--------------------------------------------------|
B|--------------------------------------------------|
G|--------------------------------------------------|
D|-----------------------9999-----------------------|
A|-11111111--9999--7777--7777----7----9----9----11--|
E|-9-9-9-9---7777--5555--------55-5-66-6-77-7-88----|

Riff 1
e|------------------------------------------------|
B|------------------------------------------------|
G|------------------------------------------------|
D|--------------------------------9999------------|
A|--7777--9999--111111--99999999--7777------------|
E|--5555--7777--9999----77777777------------------|

outro
e|------------------------------------------------|
B|------------------------------------------------|
G|-------------------------9999-------------------|Palm Mute this
D|--11111111--9999---7777--9999-------------------|2x
A|--11111111--9999---7777--7777-------------------|
E|--9-9-9-9---7777---5555-------------------------|

e|--------------------------------------------------|
B|--------------------------------------------------|
G|---------------------------------------------9999-|
D|--7777--9999--11111111--9999---7777---9999---9999-|
A|--7777--9999--11111111--9999---7777---9999---7777-|
E|--5555--7777--9-9-9-9---7777---5555---7777--------|



Tap to rate this tab
# A B C D E F G H I J K L M N O P Q R S T U V W X Y Z