Song name
# A B C D E F G H I J K L M N O P Q R S T U V W X Y Z

Nofx - Vanilla Sex tab

Band: Nofx
Song: Vanilla sex

I saw a really horrible tab for this song.
So i figured that I'd give it a shot. But if its bad. 
Don't get mad me


intro/verse

|-0--0-2-2-2-2-2-0--0-2-2-2-2-2----------------------------------|
|-1--1-3-3-3-3-3-1--1-3-3-3-3-3----------------------------------|
|-0--0-2-2-2-2-2-0--0-2-2-2-2-2-2-2-2-2-2-2-2-2--2-2-2-2-2-2-2-2-|
|-2--2-0-0-0-0-0-2--2-0-0-0-0-0-2-2-2-2-2-2-2-2--2-2-2-2-2-2-2-2-|
|-3--3-----------3--3-----------0-0-0-0-0-0-0-0--0-0-0-0-0-0-0-0-|
|----------------------------------------------------------------|

verse 2

|-------------------------------------------------|
|-------------------------------------------------|
|-------------------------------------------------|
|-3-3-3-3-5-5-5-5-2-2-2-5-7-7-7-5-3-3-3-3-5-5-5-5-|
|-3-3-3-3-5-5-5-5-2-2-2-5-7-7-7-5-3-3-3-3-5-5-5-5-|
|-1-1-1-1-3-3-3-3-0-0-0-3-5-5-5-3-1-1-1-1-3-3-3-3-|

chorus

|---------------------------------|
|---------------------------------|
|-5-5-7-7-5-5-7-7-----------------|
|-5-5-7-7-5-5-7-7-7-7-7-7-7-7-7-7-|
|-3-3-5-5-3-3-5-5-7-7-7-7-7-7-7-7-|
|-----------------5-5-5-5-5-5-5-5-|



Tap to rate this tab
# A B C D E F G H I J K L M N O P Q R S T U V W X Y Z