Song name
# A B C D E F G H I J K L M N O P Q R S T U V W X Y Z

Nofx - We Dont Play Ska Anymore tab

tabbed by: Dorteater
song:we don't play ska anymore
band: nofx
e|---------------------------------------------------------------------------|
B|---------------------------------------------------------------------------|
G|---------------------------------------------9----------12-----------------|
D|-9----------9----------6----------4----------9-9-9-9-9--12-12-12-12-12---9-|
A|-9-9-9-9-9--9-9-9-9-9--6-6-6-6-6--4-4-4-4-4--7-7-7-7-7--10-10-10-10-10---9-|
E|-7-7-7-7-7--6-6-6-6-6--4-4-4-4-4--2-2-2-2-2------------------------------7-|
     * * * *    * * * *    * * * *    * * * *    * * * *     ** ** ** **  

e|---------------------------------------------------------------------------|
B|-3-5-5b-3p0-3p0------------------------------------------------------------|
G|---------------------------------------------------------------------------|
D|---------------------------------------------------------------------------|
A|---------------------------------------------------------------------------|
E|---------------------------------------------------------------------------|

e|---------------------------------------------------------------------------|
B|---------------------------------------------------------------------------|
G|---------------------------------------------9----------12-----------------|
D|-9----------9----------6----------4----------9-9-9-9-9--12-12-12-12-12---9-|
A|-9-9-9-9-9--9-9-9-9-9--6-6-6-6-6--4-4-4-4-4--7-7-7-7-7--10-10-10-10-10---9-|
E|-7-7-7-7-7--6-6-6-6-6--4-4-4-4-4--2-2-2-2-2------------------------------7-|
     * * * *    * * * *    * * * *    * * * *    * * * *     ** ** ** **
Tap to rate this tab
# A B C D E F G H I J K L M N O P Q R S T U V W X Y Z