Song name
# A B C D E F G H I J K L M N O P Q R S T U V W X Y Z

Nofx - The Separation Of Church And Skate tab

-------------------------------------------------------------------------------
           The Separation of Church And Skate - NOFX
-------------------------------------------------------------------------------

This is my first NOFX tab, and i wrote
this down becouse this is a best damn song from NOFX.
After all, this song is not so hard as you think.
  
   intro  (tremolo picking)
E-|---------------------------------------------------------------|
B-|---------------------------------------------------------------|
G-|---------------------------------------------------------------| 2x
D-|---------------------------------------------------------------|
A-|---0000--333--222--333--222--0000--333--222--333--222----------|
E-|---------------------------------------------------------------|
  |
E-|---------------------------------------------------------------|
B-|---------------------------------------------------------------|
G-|---------------------------------------------------------------|
D-|---------------------------------------------------------------|
A-|---0000--333--222--333--222--0000--7--0000--6------------------|
E-|---------------------------------------------------------------|

E-|---------------------------------------------------------------| 
B-|---------------------------------------------------------------|
G-|---------------------------------------------------------------|
D-|---------------------------------------------------------------|
A-|---0000--7--0000--6--0000--333--222--333--222---pickslide------|
E-|---------------------------------------------------------------|

   pre verse
E-|---------------------------------------------------------------| 3x
B-|---------------------------------------------------------------|
G-|---------------------------------------------------------------|
D-|---------------------------------------------------------------|
A-|---0000--7--0000--6--0000--333--222--333--222------------------|
E-|---------------------------------------------------------------|
  |
E-|---------------------------------------------------------------| 
B-|---------------------------------------------------------------|
G-|---------------------------2-2-2-------------------------------|
D-|---------------------------2-2-2-------------------------------|
A-|---0000--7--0000--6--0000--0-0-0-------------------------------|
E-|---------------------------------------------------------------|

   verse (tremolo picking with palm muting)
E-|---------------------------------------------------------------|
B-|---------------------------------------------------------------|
G-|---------------------------------------------------------------|
D-|---------------------------------------------------------------|
A-|-----------------3333------------------------------------------|
E-|---555555--1111--------3333--555555--3333----------------------|
  |   ......  ....  ....  ....  ......  ....
E-|---------------------------------------------------------------|
B-|---------------------------------------------------------------|
G-|---------------------------------------------------------------|
D-|-----------------------------7--7------------------------------|
A-|-----------------3333--------7--7------------------------------|
E-|---555555--1111--------3333--5--5------------------------------|
      ......  ....  ....  ....

   chorus
E-|---------------------------------------------------------------|
B-|---------------------------------------------------------------|
G-|-------------------------------------5-5-5-5-5-5-5-5-----------|
D-|---7-7-7-7-7-7-7-7--3-3-3-3-3-3-3-3--5-5-5-5-5-5-5-5-----------|
A-|---7-7-7-7-7-7-7-7--3-3-3-3-3-3-3-3--3-3-3-3-3-3-3-3-----------|
E-|---5-5-5-5-5-5-5-5--1-1-1-1-1-1-1-1----------------------------|
  |
E-|---------------------------------------------------------------|
B-|---------------------------------------------------------------|
G-|---------------------------------------------------------------|
D-|---5-5-5-5-6-6-6-6---------------------------------------------|
A-|---5-5-5-5-6-6-6-6---------------------------------------------|
E-|---3-3-3-3-4-4-4-4---------------------------------------------|

E-|---------------------------------------------------------------|
B-|---------------------------------------------------------------|
G-|-------------------------------------5-5-5-5-5-5-5-5-----------|
D-|---7-7-7-7-7-7-7-7--3-3-3-3-3-3-3-3--5-5-5-5-5-5-5-5-----------|
A-|---7-7-7-7-7-7-7-7--3-3-3-3-3-3-3-3--3-3-3-3-3-3-3-3-----------|
E-|---5-5-5-5-5-5-5-5--1-1-1-1-1-1-1-1----------------------------|
  |
E-|---------------------------------------------------------------|
B-|---------------------------------------------------------------|
G-|---2-2-2-2-2-2-2-2---------------------------------------------|
D-|---2-2-2-2-2-2-2-2--2-2-3-3-3-3-3-3-3-3-3-3-3-3-3-3-3--7~------|
A-|---0-0-0-0-0-0-0-0--2-2-3-3-3-3-3-3-3-3-3-3-3-3-3-3-3--7~------|
E-|--------------------0-0-1-1-1-1-1-1-1-1-1-1-1-1-1-1-1--5~------|

   pre verse
E-|---------------------------------------------------------------| 3x
B-|---------------------------------------------------------------|
G-|---------------------------------------------------------------|
D-|---------------------------------------------------------------|
A-|---0000--7--0000--6--0000--333--222--333--222------------------|
E-|---------------------------------------------------------------|
  |
E-|---------------------------------------------------------------| 
B-|---------------------------------------------------------------|
G-|---------------------------------------------------------------|
D-|---------------------------------------------------------------|
A-|---0000--7--0000--6--------------------------------------------|
E-|---------------------------------------------------------------|

   verse 2
E-|---------------------------------------------------------------|
B-|---------------------------------------------------------------|
G-|---------------------------------------------------------------|
D-|---------------------------------------------------------------|
A-|-----------------3333------------------------------------------|
E-|---555555--1111--------3333--555555--3333----------------------|
  |   ......  ....  ....  ....  ......  ....
E-|---------------------------------------------------------------|
B-|---------------------------------------------------------------|
G-|---------------------------------------------------------------|
D-|-----------------------------7--7------------------------------|
A-|-----------------3333--------7--7------------------------------|
E-|---555555--1111--------3333--5--5------------------------------|
      ......  ....  ....  ....  
   
   chorus
E-|---------------------------------------------------------------|
B-|---------------------------------------------------------------|
G-|-------------------------------------5-5-5-5-5-5-5-5-----------|
D-|---7-7-7-7-7-7-7-7--3-3-3-3-3-3-3-3--5-5-5-5-5-5-5-5-----------|
A-|---7-7-7-7-7-7-7-7--3-3-3-3-3-3-3-3--3-3-3-3-3-3-3-3-----------|
E-|---5-5-5-5-5-5-5-5--1-1-1-1-1-1-1-1----------------------------|
  |
E-|---------------------------------------------------------------|
B-|---------------------------------------------------------------|
G-|---------------------------------------------------------------|
D-|---5-5-5-5-6-6-6-6---------------------------------------------|
A-|---5-5-5-5-6-6-6-6---------------------------------------------|
E-|---3-3-3-3-4-4-4-4---------------------------------------------|

E-|---------------------------------------------------------------|
B-|---------------------------------------------------------------|
G-|-------------------------------------5-5-5-5-5-5-5-5-----------|
D-|---7-7-7-7-7-7-7-7--3-3-3-3-3-3-3-3--5-5-5-5-5-5-5-5-----------|
A-|---7-7-7-7-7-7-7-7--3-3-3-3-3-3-3-3--3-3-3-3-3-3-3-3-----------|
E-|---5-5-5-5-5-5-5-5--1-1-1-1-1-1-1-1----------------------------|
  |
E-|---------------------------------------------------------------|
B-|---------------------------------------------------------------|
G-|---2-2-2-2-2-2-2-2---------------------------------------------|
D-|---2-2-2-2-2-2-2-2--2-2-3-3-3-3-3-3-3-3-3-3-3-3-3-3-3----------|
A-|---0-0-0-0-0-0-0-0--2-2-3-3-3-3-3-3-3-3-3-3-3-3-3-3-3----------|
E-|--------------------0-0-1-1-1-1-1-1-1-1-1-1-1-1-1-1-1----------|

   break (clean)
E-|---0~---1~---3--1---0~---0~------------------------------------|
B-|---1~---3~---3--3---1~---1~------------------------------------|
G-|---0~---2~---0--0---0~---2~------------------------------------|
D-|---2~---0~---0--0---2~---2~------------------------------------|
A-|---3~--------x--x---3~---0~------------------------------------|
E-|-------------3--3----------------------------------------------|

   pre solo
E-|---------------------------------------------------------------|
B-|---------------------------------------------------------------|
G-|---------------------------------------------------------------|
D-|---------------------------------------------------------------|
A-|---7-7-7-7-7-7-7-7--3-3-3-3-3-3-3-3----------------------------|
E-|---5-5-5-5-5-5-5-5--1-1-1-1-1-1-1-1----------------------------|
      . . . . . . . .  . . . . . . . .

   solo (w/wah)
                   A5             C5           A5
E-|-------12-10---------12-10----12~--10--------------------------|
B-|---10--------13-10~--------13---------13-10-13-10-13-13-10-----|
G-|---------------------------------------------------------------|
D-|---------------------------------------------------------------|
A-|---------------------------------------------------------------|
E-|---------------------------------------------------------------|

            C5
E-|---------------------------------------------------------------|
B-|---------------------------------------------------------------|
G-|---------9~--12-9----------------------------------------------|
D-|---10h12----------10-------------------------------------------|
A-|---------------------12----------------------------------------|
E-|---------------------------------------------------------------|

      D5                                  C5        
E-|---------------------------------------------------------------|
B-|---------------------------------------------------------------|
G-|---9h10p9p7h9h10p9p7h9h10p9p7h9h10p9p7s5~----5-5---------------|
D-|-------------------------------------------7-----7~------------|
A-|---------------------------------------------------------------|
E-|---------------------------------------------------------------|

   pre verse (again??)
E-|---------------------------------------------------------------| 4x
B-|---------------------------------------------------------------|
G-|---------------------------------------------------------------|
D-|---------------------------------------------------------------|
A-|---0000--7--0000--6--0000--333--222--333--222------------------|
E-|---------------------------------------------------------------|

   last verse
E-|---------------------------------------------------------------|
B-|---------------------------------------------------------------|
G-|---------------------------------------------------------------|
D-|---------------------------------------------------------------|
A-|-----------------3333---------000--7--000--6-------------------|
E-|---555555--1111--------33333-----------------------------------|
  |   ......  ....  ....  .....
E-|---------------------------------------------------------------|
B-|---------------------------------------------------------------|
G-|---------------------------------------------------------------|
D-|-----------------------5--5--5--6------------------------------|
A-|-----------------3333--5--5--5--6------------------------------|
E-|---555555--1111--------3--3--3--4------------------------------|
      ......  ....  ....

   chorus again

   outro
E-|-----------------------------------------------|----------------|
B-|-----------------------------------------------|----------------|
G-|-----------------------------------------------|--2-2-----------|
D-|-----------------------------------------------|--2-2-----------|
A-|--0--3p0------0h3p0-----0--3p0-------0h3p0-----|--0-0-----------|
E-|---------3-2---------3----------3-2---------3--|----------------|

That's it! Please Rate!!
Comment, suggestion or anything please mail me at daeva_shredevil@yahoo.com 

Tap to rate this tab
 
# A B C D E F G H I J K L M N O P Q R S T U V W X Y Z