Song name
# A B C D E F G H I J K L M N O P Q R S T U V W X Y Z

Nofx - Timmy The Turtle tab

NOFX
Timmy The Turtle
45 or 46 Songs That Weren't Good Enough To Go On Our Other Records
Disc 1: Counting Sheep
Timmy The Turtle EP

Standard Tuning

Intro
All harmonic-esque scratches. Cover with fingers and strum.
e-----------------------------------------------------------------------|
B-----------------------------------------------------------------------|
G------------7-7-7-7---7-7-7-7-----------------7-----7-7-7-7------------|
D--2-2-2-2---7-7-7-7---7-7-7-7---2-2-2-2---2-2-7-7---7-7-7-7---2-2-2-2--|
A--2-2-2-2---7-7-7-7---7-7-7-7---2-2-2-2---2-2-7-7---7-7-7-7---2-2-2-2--|
E--3-3-3-3-------7-7---7-7-7-7---3-3-3-3---3-3---7-------------3-3-3-3--|

E5
Timmy the turtle you know him as tim
E5
Timmy the turtle he sang for the grim
E5
Timmy the turtle you know him as tim
E5
Timmy the turtle
E5
Timmy the turtle you know him as tim
E5
Timmy the turtle he sang for the grim
E5
Timmy the turtle you know him as tim
E5
Timmy the turtle
   G5                      A5      E5
To slow is how that turtle go

E5
Timmy the turtle he's givin him hell
E5
Timmy the turtle out of his shell
E5
Timmy the turtle he's givin him hell
E5
Timmy the turtle
E5
Timmy the turtle he's givin him hell
E5
Timmy the turtle out of his shell
E5
Timmy the turtle he's givin him hell
E5
Timmy the turtle
   G5                      A5
To slow is how that turtle go

Outro (played same way as intro, but
       strike the E chord and that's
       the end)
e------------------------------------|
B------------------------------------|
G------------7-7-7-7-------------9---|
D--2-2-2-2---7-7-7-7-------------9---|
A--2-2-2-2---7-7-7-7---7-7-7-7---7---|
E--3-3-3-3-------7-7---7-7-7-7-------|

Sounds a bit right?
Tap to rate this tab
# A B C D E F G H I J K L M N O P Q R S T U V W X Y Z