Guitaretab - guitar tabs
Song name
# A B C D E F G H I J K L M N O P Q R S T U V W X Y Z

Nofx - One Way Ticket To Neckville tab

Intro   *=Strum   v=vibrato
E-----------------------------------------|
H-----------------------------------------|
G-----*---*---*----*----*----*----*----*--|
D---5----7---5----5----2----3----2----5---|
A---3----3---3----2----2----3----3----5---|
E---------------------------1---------3---|
:
Verse
E--------------------------------------|
H---*------------*---------------------|
G--5---*------*-2---*----*---*---*-----|
D--5--7------5--5--5----3---2---5------|
A--3--3------2--2--2----3---3---5------|
E----------|----------|-1---3---3------|
:
Chorus
E--/------------------2x------------\------------------------>
H---------------------*------------------------*---*--------->
G--77-7--77-7--77-7-10----*--*--*--*---*---*--5---2---------->
D--77-7--77-7--77-7-10---5--3--2--0---3---5---5---2---------->
A--55-5--55-5--55-5--8---3--3--3--3---3---5---3---0--0-2-3--->
E--mm----mm----mm---------------------1---3----------------3->
:
E------------|
H------------|
G---*---*----|
D--3---5-----|
A--3---5-----|
E--1---3-----|
:
Intro   
E-----------------------------------------|
H-----------------------------------------|
G-----*---*---*----*----*----*----*----*--|
D---5----7---5----5----2----3----2----5---|
A---3----3---3----2----2----3----3----5---|
E---------------------------1---------3---|
:
Verse
E--------------------------------------|
H---*------------*---------------------|
G--5---*------*-2---*----*---*---*-----|
D--5--7------5--5--5----3---2---5------|
A--3--3------2--2--2----3---3---5------|
E----------|----------|-1---3---3------|






Chorus2
E--/------------------2x------------\------------------------>
H----------------------------------------------*---*--------->
G--77-7--77-7--77-7---*---*--*--*--*---*---*--5---2---------->
D--77-7--77-7--77-7--3---5--3--2--0---3---5---5---2---------->
A--55-5--55-5--55-5--3---3--3--3--3---3---5---3---0--0-2-3--->
E--mm----mm----mm----1----------------1---3----------------3->
:
E------------------------------------------------|
H--------------------------*---------------------|
G---*---*---*--*---*---*--5---2------------*---*-|
D--3---5---7-7---3---5---5---2-----------3---5--|
A--3---5---7-7---3---5---3---0--0-2-3----3---5--|
E--1---3---5--5---1---3---------------v3--1---3--|
:
Intro   
E-----------------------------------------|
H-----------------------------------------|
G-----*---*---*----*----*----*----*----*--|
D---5----7---5----5----2----3----2----5---|
A---3----3---3----2----2----3----3----5---|
E---------------------------1---------3---|

thats it!
[ Tab from: http://www.guitaretab.com/n/nofx/61677.html ]
Related for One Way Ticket To Neckville tab