Song name
# A B C D E F G H I J K L M N O P Q R S T U V W X Y Z

Nofx - Theres No Fun In Fundamentalism tab

-----------------------------------------------------------------------------
			     THERE'S NO FUN IN FUNDAMENTALISM - NOFX
-----------------------------------------------------------------------------
Tabbed by: AJ
Email: ajhalton@hotmail.com

Tuning: Standard

INTRO/CHORUS
e|---------------------------------------------------------------------------|
B|---------------------------------------------------------------------------|
G|-----------5-5----7-7----5-5-----------------------------------------------|
D|--5-5------5-5----7-7----5-5-----------------------------------------------|
A|--5-5------3-3----5-5----3-3-----------------------------------------------|
E|--3-5----------------------------------------------------------------------|

VERSES
e|---------------------------------------------------------------------------|
B|---------------------------------------------------------------------------|
G|-----------------5-5-----7-7-----------------------------------------------|
D|--5-5----7-7-----5-5-----7-7-----------------------------------------------|
A|--5-5----7-7-----3-3-----5-5-----------------------------------------------|
E|--3-3----5-5---------------------------------------------------------------|

BRIDGE THINGY (x4)
e|---------------------------------------------------------------------------|
B|---------------------------------------------------------------------------|
G|---------------------5-----------7----------5------------------------------|
D|------5------------5---5-------7---7------5---5----------------------------|
A|----5---5--------3-----------5----------3----------------------------------|
E|--3------------------------------------------------------------------------|

ENDING (Play a few times [also in the actual song they have that 10 somewhere at the end])
e|---------------------------------------------------------------------------|
B|------------------------------------------------------->10-----------------|
G|---------------------------------------------------------------------------|
D|--5------------------------------------------------------------------------|
A|--5------------------------------------------------------------------------|
E|--3------------------------------------------------------------------------|

Hope that's ok for you.
Tap to rate this tab
# A B C D E F G H I J K L M N O P Q R S T U V W X Y Z