Song name
# A B C D E F G H I J K L M N O P Q R S T U V W X Y Z

Nofx - No Fun In Fundamentalism tab

Yo this is my first tab, because i really couldn't be arsed doing it the first time i tried

If you want to complain or give me some random shit my email is franco_unamerican59@hotmail.com


Listen To the song to get the timing shit right

Key:
/=slide up
\=slide down
*=palm mute


Intro:
|------------------|
|------------------|
|-----5-5/7-7\5-5--| X4
|-5-5-5-5/7-7\5-5--|
|-5-5-3-3/5-5\3-3--|
|-3-3--------------|

Verse
|----------------------||----------------------|
|----------------------||----------------------|
|-----------5555-7777--||------9999-5555-7777--|  X2
|-5555-7777-5555-7777--||-5555-9999-5555-7777--|
|-5555-7777-3333-5555--||-5555-7777-3333-5555--|
|-3333-5555------------||-3333-----------------|
  **** **** **** ****
Intro:
|------------------|
|------------------|
|-----5-5/7-7\5-5--| X2
|-5-5-5-5/7-7\5-5--|
|-5-5-3-3/5-5\3-3--|
|-3-3--------------|

Verse:
|----------------------||----------------------|
|----------------------||----------------------|
|-----------5555-7777--||------9999-5555-7777--|  X2
|-5555-7777-5555-7777--||-5555-9999-5555-7777--|
|-5555-7777-3333-5555--||-5555-7777-3333-5555--|
|-3333-5555------------||-3333-----------------|
  **** **** **** ****
Fill:

|-------------------------------------------|
|-------------------------------------------|
|-----------------/-12-12-12-12-12-12-12-12-|
|-5-5-5-5-5-5-5-5-/-12-12-12-12-12-12-12-12-|
|-5-5-5-5-5-5-5-5-/-10-10-10-10-10-10-10-10-|
|-3-3-3-3-3-3-3-3---------------------------|

|-----------------|    |--------------------------------|
|-----------------|    |--------------------------------|
|-9-9-9-9-5-5-5-5-| X2 |-9-9-9-9------------------------|
|-9-9-9-9-5-5-5-5-|    |-9-9-9-9-7-7-7-7----------------|
|-7-7-7-7-3-3-3-3-|    |-7-7-7-7-7-7-7-7---5--5----7--7-|
|-----------------|    |---------5-5-5-5--3--3---5---5--|

Verse:
|----------------------|    |----------------------|
|----------------------|    |----------------------|
|-----------5555-7777--|    |------9999-5555-7777--|
|-5555-7777-5555-7777--| X3 |-5555-9999-5555-7777--|
|-5555-7777-3333-5555--|    |-5555-7777-3333-5555--|
|-3333-5555------------|    |-3333-----------------|

Bridge:
|---------------------|
|---------------------|
|--------5----7----5--|  X6
|---5---5-5--7-7--5-5-|
|--5-5-3----5----3----|
|-3-------------------|
  **** **** **** ****
Intro:
|------------------|
|------------------|
|-----5-5/7-7\5-5--| X2
|-5-5-5-5/7-7\5-5--|
|-5-5-3-3/5-5\3-3--|
|-3-3--------------|

Outro:
|-------------------------------------------|
|-------------------------------------------|
|-----------------/-12-12-12-12-12-12-12-12-|
|-5-5-5-5-5-5-5-5-/-12-12-12-12-12-12-12-12-|
|-5-5-5-5-5-5-5-5-/-10-10-10-10-10-10-10-10-|
|-3-3-3-3-3-3-3-3---------------------------|
Tap to rate this tab
# A B C D E F G H I J K L M N O P Q R S T U V W X Y Z