Song name
# A B C D E F G H I J K L M N O P Q R S T U V W X Y Z

Nofx - Anarchy Camp tab

Band: Nofx
Song: Anarchy camp
Album: The war on errorism


Intro
e|-6-6-8-10-8-6-----6-8-10-8-6------6-8-10-8-6-8^-6-------------------------|
B|---------------8---------------8------------------6-----------------------|
G|--------------------------------------------------------------------------|
D|--------------------------------------------------------------------------|
A|--------------------------------------------------------------------------|
E|--------------------------------------------------------------------------|
Verse
e|--6-----3---6-------------------------------------------------------------|
B|--6-----3---7-------------------------------------------------------------|
G|--7-----4---8-------------------------------------------------------------|
D|--------------------------------------------------------------------------|
A|--------------------------------------------------------------------------|
E|--------------------------------------------------------------------------|

(Guitar 1)
e|--6-5---6-5----3--5-------------------------------------------------------|
B|--6-6---6-6----4--6-------------------------------------------------------|
G|--7-7---7-7----5--7-------------------------------------------------------|
D|--------------------------------------------------------------------------|
A|--------------------------------------------------------------------------|
E|--------------------------------------------------------------------------|
(Guitar 2)
e|--------------------------------------------------------------------------|
B|---6-4-3-3--6-4-3-3--------------6-6-6-4-3--------------------------------|
G|------------------------8-7-8-10------------3-----------------------------|
D|-3---------3--------3-----------------------------------------------------|
A|--------------------------------------------------------------------------|
E|--------------------------------------------------------------------------|

Solo 3
e|----------------------------------------------13-11-10-6-6----------------|
B|---6-4-3-3--6-4-3-3--------------8-6-8-6-8-11-----------------------------|
G|------------------------8-7-8-10------------------------------------------|
D|-3---------3--------3-----------------------------------------------------|
A|--------------------------------------------------------------------------|
E|--------------------------------------------------------------------------|

During Verse 3
e|-6-8-10-8-6----6-8-10-8-6---6-8-10-8-6-8----------------------------------|
B|-------------8------------8-----------------------------------------------|
G|--------------------------------------------------------------------------|
D|--------------------------------------------------------------------------|
A|--------------------------------------------------------------------------|
E|--------------------------------------------------------------------------|

e|-5/6-6/8-----18^-21^------------------------------------------------------|
B|--------------------------------------------------------------------------|
G|--------------------------------------------------------------------------|
D|--------------------------------------------------------------------------|
A|--------------------------------------------------------------------------|
E|--------------------------------------------------------------------------|

I hope this is the right tab for this song because i love this song.its funny and cool.i 
to it all the time to be able to figure out the tab.So i think i have it right 
comment and rate.
If you have any questions or comments send me an email at arbiter1023@sbcglobal.net
Tap to rate this tab
# A B C D E F G H I J K L M N O P Q R S T U V W X Y Z