Song name
# A B C D E F G H I J K L M N O P Q R S T U V W X Y Z

Nofx - Always Hate Hippies tab

Help us improve GuitareTab! Take a short survey!
"always hate hippies" - nofx
note: the first version of this made absolutely no rational sense to me, and it was 
me, so if you think you suck because you cant make that sound like the actual song, it's not 
fault.

intro
e|--2---0---3----------------------------------------------------------------|
B|--3---1---3------------repeat----------------------------------------------|
G|--2---0---0----------------------------------------------------------------|
D|--0---2---0----------------------------------------------------------------|
A|------3---2----------------------------------------------------------------|
E|----------3----------------------------------------------------------------|
(or it could be said as "D, C, G")

verse (if you could call it that)
e|---------------------------------------------------------------------------|
B|---------------------------------------------------------------------------|
G|--7--5-------------------------------------7-------------------------------|
D|--7--5--5--5----------repeat---------------7-------------------------------|
A|--5--3--5--5-------------------------------5-------------------------------|
E|--------3--3-----------------------end on----------------------------------|

yeah, it's actually very simple and takes no rocket scientist to figure out.  it was 
written in 5 minutes, like the rest of the songs on those 7 inches (fuck the kids, surfer). 
that is all.
i love you, kyle of i forget  www.iforget.tk
Related for Always Hate Hippies tab