Song name
# A B C D E F G H I J K L M N O P Q R S T U V W X Y Z

Nofx - Seeing Double At The Triple Rock tab

1st guitar
E-----------------------------------------------------|
B-----------------------------------------------------|
G-----------------------------------------------------|
D------5-------5------5---7-5-------5-------5-7-7-----|
A-7--7---7-5-7---7--7---7------7--7---7-5-7---5-5-7-7-|
E-------------------------------------------------5-5-|
2nd guitar                                               x3
E-----------------------------------------------------|
B-----------------------------------------------------|
G-----------------------------------------------------|
D-----------------------------------------------------|
A-----------------------------------------------------|
E-----------------------------------------------------|

1st guitar
E------------------------------------------------------|
B------------------------------------------------------|
G------------------------------------------------------|
D------5-------5------5---7-5-------5-------5--777-----|
A-7--7---7-5-7---7--7---7------7--7---7-5-7----555-7-5-|
E--------------------------------------------------5-3-|
2nd guitar
E------------------------------------------------------|
B------------------------------------------------------|
G----------------------------------------------777-----|
D----------------------------------------------777-7-5-|
A----------------------------------------------555-7-5-|
E--------------------------------------------------5-3-|

1st guitar
E-----------------------------------------------------|
B-----------------------------------------------------|
G-----------------------------------------------------|
D------5-------5------5---7-5-------5-------5-7-7-----|
A-7--7---7-5-7---7--7---7------7--7---7-5-7---5-5-7-7-|
E-------------------------------------------------5-5-|
2nd guitar
E-----------------------------------------------------|
B-----------------------------------------------------|
G-9--------------8-------------7--------------7-7-----|
D-9--------------8-------------7--------------7-7-7-7-|
A-7--------------6-------------5--------------5-5-7-7-|
E-------------------------------------------------5-5-|

1st guitar
E-----------------------------------------------------|
B-----------------------------------------------------|
G-----------------------------------------------------|
D------5-------5------5---7-5-------5-------5-7-7-8-8-|
A-7--7---7-5-7---7--7---7------7--7---7-5-7---5-5-6-6-|
E-----------------------------------------------------|
2nd guitar
E-----------------------------------------------------|
B-----------------------------------------------------|
G----------------8-------------7--------------7-7-8-8-|
D----------------8-------------7--------------7-7-8-8-|
A----------------6-------------5--------------5-5-6-6-|
E-----------------------------------------------------|

1st guitar
E-----------------------------------------------------|
B-----------------------------------------------------|
G-----------------------------------------------------|
D------5-------5------5---7-5-------5-------5-7-7-----|
A-7--7---7-5-7---7--7---7------7--7---7-5-7---5-5-7-7-|
E-------------------------------------------------5-5-|
2nd guitar
E-----------------------------------------------------|
B-----------------------------------------------------|
G----------------8-------------7--------------7-7-----|
D----------------8-------------7--------------7-7-7-7-|
A----------------6-------------5--------------5-5-7-7-|
E-------------------------------------------------5-5-|

1st guitar
E-----------------------------------------------------|
B-----------------------------------------------------|
G-----------------------------------------------------|
D------5-------5------5---7-5-------5-------5-777-----|
A-7--7---7-5-7---7--7---7------7--7---7-5-7---555-7-5-|
E-------------------------------------------------5-3-|
2nd guitar
E-----------------------------------------------------|
B-----------------------------------------------------|
G----------------8-------------7--------------777-----|
D----------------8-------------7--------------777-7-5-|
A----------------6-------------5--------------555-7-5-|
E-------------------------------------------------5-3-|

1st guitar
                P.M.
    ___________________________
D-----------------77777777-------|
A-2-2222225555555555555555777775-|
E-0-00000033333333--------555553-|
2nd guitar
E--------------------------------|
B--------------------------------|
G--------------------------------|
D-2----------------------------5-|
A-2----------------------------5-|
E-0----------------------------3-|

1st guitar
             P.M.
    ______________________
G-------------------------9-9------|
D-----------------777777779-9------|
A-2-22222255555555555555557-7------|
E-0-00000033333333-----------------|
2nd guitar
E----------------------------------|
B----------------------------------|
G-------------------------9-9------|
D-2-----------------------9-9------|
A-2-----------------------7-7------|
E-0---------------------------////-|

Both guitars
E------------------------------------------------------------------|
B------------------------------------------------------------------|
G-----------------77777777------------------------7777777799999999-|
D-222222225555555577777777777775--22222222555555557777777799999999-|
A-222222225555555555555555777775--22222222555555555555555577777777-|
E-0000000033333333--------555553--0000000033333333-----------------|

Both guitars
E----------------------------------|
B----------------------------------|
G-5-555557-77-77778-888889-99-9999-|
D-5-555557-77-77778-888889-99-9999-|
A-3-333335-55-55556-666667-77-7777-|
E----------------------------------|

1st guitar
E-0-000000-00-00000-000000-00-0---|
B-1-111111-11-11111-111111-11-1---|
G-2-222222-22-22222-222222-22-2---|
D-2-222222-22-22222-222222-22-2---|
A-0-000000-00-00000-000000-00-0---|
E---------------------------------|
2nd guitar
E---------------------------------|
B---------------------------------|
G---------------------------------|
D-7-777777-77-77777-777777-77-7---|
A-7-777777-77-77777-777777-77-7---|
E-5-555555-55-55555-555555-55-5-3-|

1st guitar
E-----------------------------------------------------|
B-----------------------------------------------------|
G-----------------------------------------------------|
D------5-------5------5---7-5-------5-------5-7-7-----|
A-7--7---7-5-7---7--7---7------7--7---7-5-7---5-5-7-7-|
E-------------------------------------------------5-5-|
2nd guitar
E-----------------------------------------------------|
B-----------------------------------------------------|
G----------------8-------------7--------------7-7-----|
D----------------8-------------7--------------7-7-7-7-|
A----------------6-------------5--------------5-5-7-7-|
E-------------------------------------------------5-5-|

1st guitar
E-----------------------------------------------------|
B-----------------------------------------------------|
G-----------------------------------------------------|
D------5-------5------5---7-5-------5-------5-7-7-8-8-|
A-7--7---7-5-7---7--7---7------7--7---7-5-7---5-5-6-6-|
E-----------------------------------------------------|
2nd guitar
E-----------------------------------------------------|
B-----------------------------------------------------|
G----------------8-------------7--------------7-7-8-8-|
D----------------8-------------7--------------7-7-8-8-|
A----------------6-------------5--------------5-5-6-6-|
E-----------------------------------------------------|

1st guitar
E-----------------------------------------------------|
B-----------------------------------------------------|
G-----------------------------------------------------|
D------5-------5------5---7-5-------5-------5-7-7-----|
A-7--7---7-5-7---7--7---7------7--7---7-5-7---5-5-7-7-|
E-------------------------------------------------5-5-|
2nd guitar
E-----------------------------------------------------|
B-----------------------------------------------------|
G----------------8-------------7--------------7-7-----|
D----------------8-------------7--------------7-7-7-7-|
A----------------6-------------5--------------5-5-7-7-|
E-------------------------------------------------5-5-|

1st guitar
E-----------------------------------------------------|
B-----------------------------------------------------|
G-----------------------------------------------------|
D------5-------5------5---7-5-------5-------5-777-----|
A-7--7---7-5-7---7--7---7------7--7---7-5-7---555-7-5-|
E-------------------------------------------------5-3-|
2nd guitar
E-----------------------------------------------------|
B-----------------------------------------------------|
G----------------8-------------7--------------777-----|
D----------------8-------------7--------------777-7-5-|
A----------------6-------------5--------------555-7-5-|
E-------------------------------------------------5-3-|

1st guitar
                P.M.
    ___________________________
D-----------------77777777-------|
A-2-2222225555555555555555777775-|
E-0-00000033333333--------555553-|
2nd guitar
E--------------------------------|
B--------------------------------|
G--------------------------------|
D-2----------------------------5-|
A-2----------------------------5-|
E-0----------------------------3-|

1st guitar
             P.M.
    ______________________
G-------------------------9-9------|
D-----------------777777779-9------|
A-2-22222255555555555555557-7------|
E-0-00000033333333-----------------|
2nd guitar
E----------------------------------|
B----------------------------------|
G-------------------------9-9------|
D-2-----------------------9-9------|
A-2-----------------------7-7------|
E-0---------------------------////-|

Both guitars
E------------------------------------------------------------------|
B------------------------------------------------------------------|
G-----------------77777777------------------------7777777799999999-|
D-222222225555555577777777777775--22222222555555557777777799999999-|
A-222222225555555555555555777775--22222222555555555555555577777777-|
E-0000000033333333--------555553--0000000033333333-----------------|

Both guitars
E----------------------------------|
B----------------------------------|
G-5-555557-77-77778-888889-99-9999-|
D-5-555557-77-77778-888889-99-9999-|
A-3-333335-55-55556-666667-77-7777-|
E----------------------------------|

1st guitar
E-0-000000-00-00000-000000-00-0000-|
B-1-111111-11-11111-111111-11-1111-|
G-2-222222-22-22222-222222-22-2222-|
D-2-222222-22-22222-222222-22-2222-|
A-0-000000-00-00000-000000-00-0000-|
E----------------------------------|
2nd guitar
E----------------------------------|
B----------------------------------|
G----------------------------------|
D-7-777777-77-77777-777777-77-7777-|
A-7-777777-77-77777-777777-77-7777-|
E-5-555555-55-55555-555555-55-5555-|

Both guitars
E----------------------------------|
B----------------------------------|
G-5-55555---------7-777779-99-9999-|
D-5-555555-55-55557-777779-99-9999-|
A-3-333335-55-55555-555557-77-7777-|
E--------3-33-3333-----------------|

1st guitar
E-0----0----3----0----0----0----3----0----0----0------|
B-1----1----3----0----1----1----3----0----1----1------|
G-2----0----0----0----2----0----0----0----2----0------|
D-2----2----0----2----2----2----0----2----2----2------|
A-0----3----2----2----0----3----2----2----0----3------|
E-----------3----0--------------3----0----------------|
2nd guitar
E-----------------------------------------------------|
B-----------------------------------------------------|
G-----------------------------------------------------|
D-7---------------------------------------------------|
A-7---------------------------------------------------|
E-5-------------------------------------------------3-|

1st guitar
E-----------------------------------------------------|
B-----------------------------------------------------|
G-----------------------------------------------------|
D------5-------5------5---7-5-------5-------5-7-7-----|
A-7--7---7-5-7---7--7---7------7--7---7-5-7---5-5-7-7-|
E-------------------------------------------------5-5-|
2nd guitar
E-----------------------------------------------------|
B-----------------------------------------------------|
G----------------8-------------7--------------7-7-----|
D----------------8-------------7--------------7-7-7-7-|
A----------------6-------------5--------------5-5-7-7-|
E-------------------------------------------------5-5-|

1st guitar
E-----------------------------------------------------|
B-----------------------------------------------------|
G-----------------------------------------------------|
D------5-------5------5---7-5-------5-------5-777-----|
A-7--7---7-5-7---7--7---7------7--7---7-5-7---555-7-5-|
E-------------------------------------------------5-3-|
2nd guitar
E-----------------------------------------------------|
B-----------------------------------------------------|
G----------------8-------------7--------------777-----|
D----------------8-------------7--------------777-7-5-|
A----------------6-------------5--------------555-7-5-|
E-------------------------------------------------5-3-|

1st guitar
E-----------------------------------------------------|
B-----------------------------------------------------|
G-----------------------------------------------------|
D------5-------5------5---7-5-------5-------5-7-7-----|
A-7--7---7-5-7---7--7---7------7--7---7-5-7---5-5-7-7-|
E-------------------------------------------------5-5-|
2nd guitar                                               x3
E-----------------------------------------------------|
B-----------------------------------------------------|
G-----------------------------------------------------|
D-----------------------------------------------------|
A-----------------------------------------------------|
E-----------------------------------------------------|

1st guitar
E------------------------------------------------------|
B------------------------------------------------------|
G------------------------------------------------------|
D------5-------5------5---7-5-------5-------5--777-----|
A-7--7---7-5-7---7--7---7------7--7---7-5-7----555-7-5-|
E--------------------------------------------------5-3-|
2nd guitar
E------------------------------------------------------|
B------------------------------------------------------|
G----------------------------------------------777-----|
D----------------------------------------------777-7-5-|
A----------------------------------------------555-7-5-|
E--------------------------------------------------5-3-|

1st guitar
E-----------------------------------------------------|
B-----------------------------------------------------|
G-----------------------------------------------------|
D------5-------5------5---7-5-------5-------5-7-7-----|
A-7--7---7-5-7---7--7---7------7--7---7-5-7---5-5-7-7-|
E-------------------------------------------------5-5-|
2nd guitar
E-----------------------------------------------------|
B-----------------------------------------------------|
G-9--------------8-------------7--------------7-7-----|
D-9--------------8-------------7--------------7-7-7-7-|
A-7--------------6-------------5--------------5-5-7-7-|
E-------------------------------------------------5-5-|

1st guitar
E-----------------------------------------------------|
B-----------------------------------------------------|
G-----------------------------------------------------|
D------5-------5------5---7-5-------5-------5-7-7-8-8-|
A-7--7---7-5-7---7--7---7------7--7---7-5-7---5-5-6-6-|
E-----------------------------------------------------|
2nd guitar
E-----------------------------------------------------|
B-----------------------------------------------------|
G----------------8-------------7--------------7-7-8-8-|
D----------------8-------------7--------------7-7-8-8-|
A----------------6-------------5--------------5-5-6-6-|
E-----------------------------------------------------|

1st guitar
E-----------------------------------------------------|
B-----------------------------------------------------|
G-----------------------------------------------------|
D------5-------5------5---7-5-------5-------5-7-7-----|
A-7--7---7-5-7---7--7---7------7--7---7-5-7---5-5-7-7-|
E-------------------------------------------------5-5-|
2nd guitar
E-----------------------------------------------------|
B-----------------------------------------------------|
G----------------8-------------7--------------7-7-----|
D----------------8-------------7--------------7-7-7-7-|
A----------------6-------------5--------------5-5-7-7-|
E-------------------------------------------------5-5-|

1st guitar
E-----------------------------------------------------|
B-----------------------------------------------------|
G-----------------------------------------------------|
D------5-------5------5---7-5-------5-------5-777-----|
A-7--7---7-5-7---7--7---7------7--7---7-5-7---555-7-5-|
E-------------------------------------------------5-3-|
2nd guitar
E-----------------------------------------------------|
B-----------------------------------------------------|
G----------------8-------------7--------------777-----|
D----------------8-------------7--------------777-7-5-|
A----------------6-------------5--------------555-7-5-|
E-------------------------------------------------5-3-|

1st guitar
                P.M.
    ___________________________
D-----------------77777777-------|
A-2-2222225555555555555555777775-|
E-0-00000033333333--------555553-|
2nd guitar
E--------------------------------|
B--------------------------------|
G--------------------------------|
D-2----------------------------5-|
A-2----------------------------5-|
E-0----------------------------3-|

1st guitar
             P.M.
    ______________________
G-------------------------9-9------|
D-----------------777777779-9------|
A-2-22222255555555555555557-7------|
E-0-00000033333333-----------------|
2nd guitar
E----------------------------------|
B----------------------------------|
G-------------------------9-9------|
D-2-----------------------9-9------|
A-2-----------------------7-7------|
E-0---------------------------////-|

Both guitars
E------------------------------------------------------------------|
B------------------------------------------------------------------|
G-----------------77777777------------------------7777777799999999-|
D-222222225555555577777777777775--22222222555555557777777799999999-|
A-222222225555555555555555777775--22222222555555555555555577777777-|
E-0000000033333333--------555553--0000000033333333-----------------|

Both guitars
E----------------------------------|
B----------------------------------|
G-5-555557-77-77778-888889-99-9999-|
D-5-555557-77-77778-888889-99-9999-|
A-3-333335-55-55556-666667-77-7777-|
E----------------------------------|

1st guitar
E-0-000000-00-00000-000000-00-0---|
B-1-111111-11-11111-111111-11-1---|
G-2-222222-22-22222-222222-22-2---|
D-2-222222-22-22222-222222-22-2---|
A-0-000000-00-00000-000000-00-0---|
E---------------------------------|
2nd guitar
E---------------------------------|
B---------------------------------|
G---------------------------------|
D-7-777777-77-77777-777777-77-7---|
A-7-777777-77-77777-777777-77-7---|
E-5-555555-55-55555-555555-55-5-3-|

1st guitar
E-----------------------------------------------------|
B-----------------------------------------------------|
G-----------------------------------------------------|
D------5-------5------5---7-5-------5-------5-7-7-----|
A-7--7---7-5-7---7--7---7------7--7---7-5-7---5-5-7-7-|
E-------------------------------------------------5-5-|
2nd guitar
E-----------------------------------------------------|
B-----------------------------------------------------|
G----------------8-------------7--------------7-7-----|
D----------------8-------------7--------------7-7-7-7-|
A----------------6-------------5--------------5-5-7-7-|
E-------------------------------------------------5-5-|

1st guitar
E-----------------------------------------------------|
B-----------------------------------------------------|
G-----------------------------------------------------|
D------5-------5------5---7-5-------5-------5-7-7-8-8-|
A-7--7---7-5-7---7--7---7------7--7---7-5-7---5-5-6-6-|
E-----------------------------------------------------|
2nd guitar
E-----------------------------------------------------|
B-----------------------------------------------------|
G----------------8-------------7--------------7-7-8-8-|
D----------------8-------------7--------------7-7-8-8-|
A----------------6-------------5--------------5-5-6-6-|
E-----------------------------------------------------|

1st guitar
E-----------------------------------------------------|
B-----------------------------------------------------|
G-----------------------------------------------------|
D------5-------5------5---7-5-------5-------5-7-7-----|
A-7--7---7-5-7---7--7---7------7--7---7-5-7---5-5-7-7-|
E-------------------------------------------------5-5-|
2nd guitar
E-----------------------------------------------------|
B-----------------------------------------------------|
G----------------8-------------7--------------7-7-----|
D----------------8-------------7--------------7-7-7-7-|
A----------------6-------------5--------------5-5-7-7-|
E-------------------------------------------------5-5-|

1st guitar
E-----------------------------------------------------|
B-----------------------------------------------------|
G-----------------------------------------------------|
D------5-------5------5---7-5-------5-------5-777-----|
A-7--7---7-5-7---7--7---7------7--7---7-5-7---555-7-5-|
E-------------------------------------------------5-3-|
2nd guitar
E-----------------------------------------------------|
B-----------------------------------------------------|
G----------------8-------------7--------------777-----|
D----------------8-------------7--------------777-7-5-|
A----------------6-------------5--------------555-7-5-|
E-------------------------------------------------5-3-|

1st guitar
                P.M.
    ___________________________
D-----------------77777777-------|
A-2-2222225555555555555555777775-|
E-0-00000033333333--------555553-|
2nd guitar
E--------------------------------|
B--------------------------------|
G--------------------------------|
D-2----------------------------5-|
A-2----------------------------5-|
E-0----------------------------3-|

1st guitar
             P.M.
    ______________________
G-------------------------9-9------|
D-----------------777777779-9------|
A-2-22222255555555555555557-7------|
E-0-00000033333333-----------------|
2nd guitar
E----------------------------------|
B----------------------------------|
G-------------------------9-9------|
D-2-----------------------9-9------|
A-2-----------------------7-7------|
E-0---------------------------////-|

Both guitars
E------------------------------------------------------------------|
B------------------------------------------------------------------|
G-----------------77777777------------------------7777777799999999-|
D-222222225555555577777777777775--22222222555555557777777799999999-|
A-222222225555555555555555777775--22222222555555555555555577777777-|
E-0000000033333333--------555553--0000000033333333-----------------|

Both guitars
E----------------------------------|
B----------------------------------|
G-5-555557-77-77778-888889-99-9999-|
D-5-555557-77-77778-888889-99-9999-|
A-3-333335-55-55556-666667-77-7777-|
E----------------------------------|

1st guitar
E-0-000000-00-00000-000000-00-0000-|
B-1-111111-11-11111-111111-11-1111-|
G-2-222222-22-22222-222222-22-2222-|
D-2-222222-22-22222-222222-22-2222-|
A-0-000000-00-00000-000000-00-0000-|
E----------------------------------|
2nd guitar
E----------------------------------|
B----------------------------------|
G----------------------------------|
D-7-777777-77-77777-777777-77-7777-|
A-7-777777-77-77777-777777-77-7777-|
E-5-555555-55-55555-555555-55-5555-|

Both guitars
E----------------------------------|
B----------------------------------|
G-5-55555---------7-777779-99-9999-|
D-5-555555-55-55557-777779-99-9999-|
A-3-333335-55-55555-555557-77-7777-|
E--------3-33-3333-----------------|

1st guitar
E-0----0----3----0----0----0----3----0----0----0------|
B-1----1----3----0----1----1----3----0----1----1------|
G-2----0----0----0----2----0----0----0----2----0------|
D-2----2----0----2----2----2----0----2----2----2------|
A-0----3----2----2----0----3----2----2----0----3------|
E-----------3----0--------------3----0----------------|
2nd guitar
E-----------------------------------------------------|
B-----------------------------------------------------|
G-----------------------------------------------------|
D-7---------------------------------------------------|
A-7---------------------------------------------------|
E-5-------------------------------------------------3-|

1st guitar
E-----------------------------------------------------|
B-----------------------------------------------------|
G-----------------------------------------------------|
D------5-------5------5---7-5-------5-------5-7-7-----|
A-7--7---7-5-7---7--7---7------7--7---7-5-7---5-5-7-7-|
E-------------------------------------------------5-5-|
2nd guitar
E-----------------------------------------------------|
B-----------------------------------------------------|
G----------------8-------------7--------------7-7-----|
D----------------8-------------7--------------7-7-7-7-|
A----------------6-------------5--------------5-5-7-7-|
E-------------------------------------------------5-5-|

1st guitar
E-----------------------------------------------------|
B-----------------------------------------------------|
G-----------------------------------------------------|
D------5-------5------5---7-5-------5-------5-777-----|
A-7--7---7-5-7---7--7---7------7--7---7-5-7---555-7-5-|
E-------------------------------------------------5-3-|
2nd guitar
E-----------------------------------------------------|
B-----------------------------------------------------|
G----------------8-------------7--------------777-----|
D----------------8-------------7--------------777-7-5-|
A----------------6-------------5--------------555-7-5-|
E-------------------------------------------------5-3-|

1st guitar
E---
B---
G---
D---
A-2-
E-0-
2nd guitar
E---
B---
G---
D-2-
A-2-
E-0-

end.
Tap to rate this tab
 
# A B C D E F G H I J K L M N O P Q R S T U V W X Y Z