Song name
# A B C D E F G H I J K L M N O P Q R S T U V W X Y Z

Nofx - Irrationality Of Rationality tab

Band: Nofx
Album: The War on errorism
email: arbiter1023@sbcglobal.net
Song: Irrationality of Rationality
Intro
e|--------------------------------------------------------------------------|
B|--------------------------------------------------------------------------|
G|-------------------------10-----------------------------------------------|
D|--7-7-7-7-7-7-7-7-7----5-10--5--------------------------------------------|
A|--7-7-7-7-7-7-7-7-7----5-8---5--------------------------------------------|
E|--5-5-5-5-5-5-5-5-5----3-----3--------------------------------------------|
Verse
e|--------------------------------------------------------------------------|
B|-1-----1------------------------------------------------------------------|
G|-2-----0------------------------10----------------------------------------|
D|-2-----2----3-3--7-7-7-7-7-7--5-10-5--------------------------------------|
A|-------3----3-3--7-7-7-7-7-7--5-8--5--------------------------------------|
E|------------1-1--5-5-5-5-5-5--3----3--------------------------------------|
Chorus
e|--------------------------------------------------------------------------|
B|--------------------------------------------------------------------------|
G|-------------------------10-----------------------------------------------|
D|--10-------------7-------10-------10-----------x2-------------------------|
A|--10-------------7-------8--------10--------------------------------------|
E|--8--------------5----------------8---------------------------------------|

e|--------------------------------------------------------------------------|
B|--------------------------------------------------------------------------|
G|---------12-----10------------------12------------------------------------|
D|--10-----12-----10------10---10-----12------------------------------------|
A|--10-----10-----8-------10---10-----10------------------------------------|
E|--8---------------------8----8--------------------------------------------|

Guitar in 2 Verse
e|--------------------------------------------------------------------------|
B|--------------------------------------------------------------------------|
G|--------------------------------------------------------------------------|
D|--------------------------------------------------------------------------|
A|-7--3---5-6--3----------6-6-8--3------------------------------------------|
E|--------------------------------------------------------------------------|

Bridge
e|--------------------1----1------------------------------------------------|
B|--------1-----1-----1----1------------------------------------------------|
G|-5~~----2-----0-----2----2------------------------------------------------|
D|-5~~----2-----2-----3----3------------------------------------------------|
A|-3~~----------3-----------------------------------------------------------|
E|--------------------------------------------------------------------------|

I saw that there were no tabs for this song so i figured I would tab it. I hope you all enjoy
Tap to rate this tab
# A B C D E F G H I J K L M N O P Q R S T U V W X Y Z