Song name
# A B C D E F G H I J K L M N O P Q R S T U V W X Y Z

Nofx - Leaving Jesusland tab

tabbed by Dallas Benavides
danziggraves138@yahoo.com


Intro/Main Riff
e|--------------------------------------------------------------------------|
B|--------------------------------------------------------------------------|
G|--------------------------------------------------------------------------|
D|--------------------------------------------------------------------------|
A|77777777-33333333-5555-2222-33-77-----------------------------------------|
E|55555555-11111111-3333-0000-11-55-----------------------------------------|
pm........ ........ .... .... .. ..

play 4x


i dont know the next part but after that it goes to the main riff again


no longer svelte...

e|--------------------------------------------------------------------------|
B|--------------------------------------------------------------------------|
G|--------------------------------------------------------------------------|
D|--------------------------------------------------------------------------|
A|77777777-33333333-5555-2222-33-77-----------------------------------------|
E|55555555-11111111-3333-0000-11-55-----------------------------------------|
pm........ ........ .... .... .. ..

no compromise.......

e|--------------------------------------------------------------------------|
B|--------------------------------------------------------------------------|
G|--------------------------------------------------------------------------|
D|--------------------------------------------------------------------------|
A|-7-7-7-7--3-3-3-3--5-5--2-2--3-3--7-7-------------------------------------|
E|5-5-5-5--1-1-1-1--3-3--0-0--1-1--5-5--------------------------------------|
pm........ ........ .... .... .... ....
Tap to rate this tab
 
# A B C D E F G H I J K L M N O P Q R S T U V W X Y Z