Song name
# A B C D E F G H I J K L M N O P Q R S T U V W X Y Z

Nofx - You Will Lose Faith Acoustic tab

You Will Lose Faith (Acoustic)
Originally by NOFX
Transcribed by Rob Fox

The other tab was kind of right, but not exactly, this is how I play it
(listen to the song for the rhythym)

Standard Tuning (EADGBe) 

Intro:             

|-------------------------------------------------------------|
|-------------------------------------------------------------|
|--7----9--9--7--6--9--9--7--6--9--9--7--6--9--9--7--6--------|
|--7----9--9--7--6--9--9--7--6--9--9--7--6--9--9--7--6--------|
|--5----7--6--5--4--7--6--5--4--7--6--5--4--7--6--5--4--------|
|-------------------------------------------------------------|


Verse:

|-------------------------------------------------------------|
|-------------------------------------------------------------|
|--9--9--7--6--9--9--7--6--9--9--7--6--9--9--7--6-------------|
|--9--9--7--6--9--9--7--6--9--9--7--6--9--9--7--6-------------|
|--7--6--5--4--7--6--5--4--7--6--5--4--7--6--5--4-------------|
|-------------------------------------------------------------|
   your only daughters turning tricks cause shes....


Chorus:

|-------------------------------------------------------------|
|-------------------------------------------------------------|
|--9-----7-----5--7--------5--7-------------------------------|
|--9--5--7--7--5--7--5--2--5--7-------------------------------|
|--7--5--5--7--3--5--5--2--3--5-------------------------------|
|-----3-----5--------3--0-------------------------------------|
   was in a bad place when you punched, your supervisor...

Outro:

|-------------------------------------------------------------|
|-------------------------------------------------------------|
|--------7--8-------------------------------------------------|
|--2--5--7--8-------------------------------------------------|
|--2--5--5--6-------------------------------------------------|
|--0--3-------------------------------------------------------|
   where is your God?...



End on this power chord

|-------------------|
|-------------------|
|--7----------------|
|--7----------------|
|--5----------------|
|-------------------|


It's a pretty funny song, I recommend playing it in church if you want to see some frowns :)

http://www.myspace.com/9waystosunday
Tap to rate this tab
# A B C D E F G H I J K L M N O P Q R S T U V W X Y Z