Song name
# A B C D E F G H I J K L M N O P Q R S T U V W X Y Z

Nofx - Benny Got Blowed Up tab

intro
e|---------------------------------------------------------------------------|
B|---------------------------------------------------------------------------|
G|---------7777777-----------------------------------------------------------|
D|--555----7777777---repeat--------------------------------------------------|
A|--555----5555555-----------------------------------------------------------|
E|--333----------------------------------------------------------------------|
verse
e|---------------------------------------------------------------------------|
B|---------------------------------------------------------------------------|
G|---------7777777----------7777777----------------------7777----------------|
D|--555----7777777---555----7777777---555--7777---5555---7777----------------|
A|--555----5555555---555----5555555---555--7777---5555---5555----------------|
E|--333--------------333--------------333--5555---3333-----------------------|
chorus
e|---------------------------------------------------------------------------|
B|----------------3----5-----------------------------------------------------|
G|------------7---4----4-----------------------------------------------------|
D|--5---7-----7---4----2---5-------------------------------------------------|
A|--5---7-----5---2--------5-------------------------------------------------|
E|--3---5------------------3-------------------------------------------------|
outro
e|---------------------------------------------------------------------------|
B|---------------------------------------------------------------------------|
G|---------7777777-----------------------------------------------------------|
D|--555----7777777---repeat--------------------------------------------------|
A|--555----5555555-----------55555-------------------------------------------|
E|--333----------------------------------------------------------------------|
good song. easy, and 1 minute and 5 seconds long.  kinda fun.  nofx.  that's all that 
right?  i'm very very sure that the majority of this is absolutely correct.
peace yo, kyle of i forget.  www.iforget.tk
Tap to rate this tab
# A B C D E F G H I J K L M N O P Q R S T U V W X Y Z