Song name
# A B C D E F G H I J K L M N O P Q R S T U V W X Y Z

Nofx - 60 tab

Help us improve GuitareTab! Take a short survey!
"60% (reprise)" - nofx
tabbed by: 3chordkyle

note: follows doornails, so playing doornails first makes it all the better.

intro
e|------------------------------------------------------------------------------|
B|-----------------------------5--------4---------------------------------------|
G|--------------------0------5--------5-----------------------------------------|
D|------5-----------2------5--------5------------5------------------------------|
A|----5-----------2------3--------3------------5--------------------------------|
E|--3-----3-----0----------------------------3------3---------------------------|
faster part (smiling to their face)
e|---------------------------------------------------------------------------|
B|---------------------------------------------------------------------------|
G|---------------------------------------------------------------------------|
D|--5-----5--5-----5---------------------------------------------------------|
A|--5-----5--5-----5---------------------------------------------------------|
E|--3-----3--3-----3---------------------------------------------------------|
verse (but that's okay...)
e|---------------------------------------------------------------------------|
B|-----------7---------------------------------------------------------------|
G|--------8--8---------------------------------------------------------------|
D|--8--5--8--8--5------------------------------------------------------------|
A|--8--5--6--6--5------------------------------------------------------------|
E|--6--3--------3------------------------------------------------------------|
(which means we make more money..)
e|---------------------------------------------------------------------------|
B|---------------------------------------------------------------------------|
G|--5------------------------------------------------------------------------|
D|--5--3--8--5---------------------------------------------------------------|
A|--3--3--8--5---------------------------------------------------------------|
E|-----1--6--3---------------------------------------------------------------|
(and so is goin out...)
e|---------------------------------------------------------------------------|
B|-----------7---------------------------------------------------------------|
G|--------8--8--4------------------------------------------------------------|
D|--8--5--8--8--5------------------------------------------------------------|
A|--8--5--6--6--5------------------------------------------------------------|
E|--6--3--------3------------------------------------------------------------|

oh yes.  yet ANOTHER wonderful nofx song! i love it oh so much.  only 1 minute and 54 
w/ people talking in the background at the end of the track.  so the song itself is really 
but exceptionally wonderful.  sorry i didnt find out any licks for this one either. that is all.
love, kyle of i forget www.iforget.tk
Related for 60 tab