Song name
# A B C D E F G H I J K L M N O P Q R S T U V W X Y Z

Nofx - Teenage Punching Bag tab

"teenage punching bag" - nofx
tabbed by: 3chordkyle
note: let like.... every note sustain for a long time.

verse
e|---------------------------------------------------------------------------|
B|---------------------------------------------------------------------------|
G|---------------------------------------------------------------------------|
D|-7---------7---------------------------------------------------------------|
A|-7---------7---------------------------------------------------------------|
E|-5---------5---------------------------------------------------------------|
chorus
e|---------------------------------------------------------------------------|
B|---------------------------------------------------------------------------|
G|---------------------------------------------------------------------------|
D|-3--7-------7--------------------------------------------------------------|
A|-3--7-------7--------------------------------------------------------------|
E|-1--5-------5--------------------------------------------------------------|
outro thing
e|---------------------------------------------------------------------------|
B|---------------------------------------------------------------------------|
G|-----5---------------------------------------------------------------------|
D|-3---5---7----7------------------------------------------------------------|
A|-3---3---7----7------------------------------------------------------------|
E|-1-------5----5------------------------------------------------------------|

and if you want the bass thing, since it's basically what makes this song  this song, i
this:
G|---------------------------------------------------------------------------|
D|-------2--2--3--2------------------------repeat----------------------------|
A|-------------------5--3--2-------------------------------------------------|
E|-5--5-----------------------3----------------------------------------------|

i believe it's as right as i'm gonna get it.  if you have a brain, you'll know that the
on the E could be an open A, but i prefer the E myself.  that's all for this song.  you
just know it as the song at the of track 19 on wolves in wolves' clothing if you dont 
the 7 inch of the month stuff.  the guitar part is way easier than i had any idea of.
just found that out a minute ago when i figured it out.   that's all for this song.
i love you, kyle of i forget www.iforget.tk
Tap to rate this tab
# A B C D E F G H I J K L M N O P Q R S T U V W X Y Z