Song name
# A B C D E F G H I J K L M N O P Q R S T U V W X Y Z

Nofx - Cantando En Espanol tab

"cantando en espanol" - nofx
tabbed by: 3chordkyle

note: all notes to sustain.  and to those who dont know spanish, it's translated to 
in spanish".  not that that has anything to do with tabs.

verse (kinda)
e|---------------------------------------------------------------------------|
B|---------------------------------------------------------------------------|
G|---------------------------------------------------------------------------|
D|--7--6--5--4--3--2---------------------------------------------------------|
A|--7--6--5--4--3--2-----repeat----------------------------------------------|
E|--5--4--3--2--1--0---------------------------------------------------------|
chorus (kinda)
e|---------------------------------------------------------------------------|
B|---------------------------------------------------------------------------|
G|-------------5-------------------------------------------------------------|
D|-3--5--7--3--5--5--7--3----------------------------------------------------|
A|-3--5--7--3--3--5--7--3--ring----------------------------------------------|
E|-1--3--5--1-----3--5--1----------------------------------------------------|

mhmmm... that's it.  1 minute 26 seconds.  i guess it's right.....  i'd put the bass 
up here for yas, but i cant find it out.  i could, but i'm too lazy to.  i will one day, 
me.  maybe.  but that's all.
love, kyle of i forget www.iforget.tk
Tap to rate this tab
 
# A B C D E F G H I J K L M N O P Q R S T U V W X Y Z