Guitaretab - guitar tabs
Song name
# A B C D E F G H I J K L M N O P Q R S T U V W X Y Z

Nofx - Breath Of Least Resistance tab

Tabbed by: seŮor patrick
Email:Patman9161@aol.com
This is the intro to this amazing song that is somehow on the PS2 version of DDR. Donít 
how the hell that happened. Can be played on low E or on a string. Donít matter.
Tuning:EADGBe

e|---------------------------------------------------------------------|
B|---------------------------------------------------------------------|
G|---------------------------------------------------------------------|
D|---------------------------------------------------------------------|
A|1-1-1-3-3-3-0-0-0-5-5-5----------------------------------------------|
E|---------------------------------------------------------------------|
[ Tab from: http://www.guitaretab.com/n/nofx/75521.html ]
e|----------------------------------------------------------------------|
B|----------------------------------------------------------------------|
G|----------------------------------------------------------------------|
D|-------------------5--------------------------------------------------|
A|1-1-1-3-3-3-0-0-0-5-7-------------------------------------------------|
E|----------------------------------------------------------------------|

So after the notes are played they play power chords and so I am lazy to play that part 
those notes as bass notes in the power for example:

e|---------------------------------------------------------------------|
B|---------------------------------------------------------------------|
G|3-3-3--5-5-5--2--7-7-7-----------------------------------------------|
D|3-3-3--5-5-5--2--7-7-7-----------------------------------------------|
A|1-1-1--3-3-3--0--5-5-5-----------------------------------------------|
E|---------------------------------------------------------------------|

Thatís all for now. I will work on the rest of the tab latr
Related for Breath Of Least Resistance tab