Song name
# A B C D E F G H I J K L M N O P Q R S T U V W X Y Z

Nofx - Wore Out The Soles Of My Party Boots tab

-------------------------------------------------------------------------------
			     Wore out the soles of my party boots- NoFX
-------------------------------------------------------------------------------
Standard tuning

b=bend
s=slide

The lyrics don't coincide with the tab, they're just there to let you know where you are.

e|-----------------------------------------------------------------|
B|-----------------------------------------------------------------|
G|-----------------------------------------------------------------|
D|-----------------------------------------------------------------|
A|-7---6---4---6--7-7--6-6--4-4--6-6-------------------------------|
E|-----------------------------------------------------------------|

"Life is fast, but I dont wanna live past you 'cause you are my only roots..."
e|-----------------------------------------------------------------|
B|-----------------------------------------------------------------|
G|-6-6--4-4-------9-9----------------------------------------------|
D|-6-6--4-4--7-7--9-9--7-7--8-8--9-9--10-10------------------------|
A|-4-4--2-2--7-7--7-7--7-7--9-9--9-9--11-11------------------------|
E|------------5-5-------5-5--6-6--7-7---8--8-----------------------|

"I was the king of the drug booze thing now I wore out the soles of my party boots..."
e|---------------------------5-5-5-5-5-5--------------------------|
B|---------------------------5-5-5-5-5-5--------------------------|
G|---------------------------5-5-5-5-5-5--9-9-9-9-9-9-------------|
D|-7-7--9-9--11-11--9-9--7--7-7-7-7-7-7--9-9-9-9-9-9--------------|
A|-7-7--9-9--11-11--9-9--7--7-7-7-7-7-7--7-7-7-7-7-7--------------|
E|-5-5--7-7---9-9---7-7--5--5-5-5-5-5-5---------------------------|

"So call me shit face master of discrace, I don't care 'cause my outer skin..."
e|--------------------------------------------------------|
B|--------------------------------------------------------|
G|-6-6--4-4-------9-9-------------------------------------|
D|-6-6--4-4--7-7--9-9-------------------------------------|
A|-4-4--2-2--7-7--7-7----7------9-------9--------11-------|
E|------------5-5------5----5s6----6-7-7---7-8-8-----8----|

"Is thick like crust, and a liver thats rusted out, now I'm on a list..."
e|---------------------------5-5-5-5-5-5--------------------------|
B|---------------------------5-5-5-5-5-5--------------------------|
G|---------------------------5-5-5-5-5-5--9-9-9-9-9-9-------------|
D|-7-7--9-9--11-11--9-9--7--7-7-7-7-7-7--9-9-9-9-9-9--------------|
A|-7-7--9-9--11-11--9-9--7--7-7-7-7-7-7--7-7-7-7-7-7--------------|
E|-5-5--7-7---9-9---7-7--5--5-5-5-5-5-5---------------------------|

"Everybody wants to give a shit outta me, I wont give it but I'll give ambivalence..."
e|-----------------------------------------------------------------|
B|-----------------------------------------------------------------|
G|-6-6-6-6-6-6-6-6-6-6-6-6-6-6-6-6---------------------------------|
D|-6-6-6-6-6-6-6-6-6-6-6-6-6-6-6-6---------------------------------|
A|-4-4-4-4-4-4-4-4-4-4-4-4-4-4-4-4---------------------------------|
E|-----------------------------------------------------------------|

e|---------------------------------------------------------------|
B|---------------------------------------------------------------|
G|---------------------------------------------------------------|
D|---------------4-----------------------------------------------|
A|-------------0-2-----------------------------------------------|
E|-5-5-4-4-2-2---------------------------------------------------|

"I gotta memory box, 'cause my memory blocks me, from remembering weeks..."
e|--------------------------------------------------------|
B|--------------------------------------------------------|
G|-6-6--4-4-------9-9-------------------------------------|
D|-6-6--4-4--7-7--9-9-------------------------------------|
A|-4-4--2-2--7-7--7-7----7------9-------9--------11-------|
E|------------5-5------5----5s6----6-7-7---7-8-8-----8----|

"All the blacked out nights into white out mornings, into grey matter damagings..."
e|---------------------------5-5-5-5-5-5--------------------------|
B|---------------------------5-5-5-5-5-5--------------------------|
G|---------------------------5-5-5-5-5-5--9-9-9-9-9-9-------------|
D|-7-7--9-9--11-11--9-9--7--7-7-7-7-7-7--9-9-9-9-9-9--------------|
A|-7-7--9-9--11-11--9-9--7--7-7-7-7-7-7--7-7-7-7-7-7--------------|
E|-5-5--7-7---9-9---7-7--5--5-5-5-5-5-5---------------------------|

"So call me fat fuck, geriatric punk rock, give it straight 'cause I deserve..."
e|--------------------------------------------------------|
B|--------------------------------------------------------|
G|-6-6--4-4-------9-9-------------------------------------|
D|-6-6--4-4--7-7--9-9-------------------------------------|
A|-4-4--2-2--7-7--7-7----7------9-------9--------11-------|
E|------------5-5------5----5s6----6-7-7---7-8-8-----8----|

"A verbal beating from an audience bleating, and a melee with no concern..."
e|---------------------------5-5-5-5-5-5--------------------------|
B|---------------------------5-5-5-5-5-5--------------------------|
G|---------------------------5-5-5-5-5-5--9-9-9-9-9-9-------------|
D|-7-7--9-9--11-11--9-9--7--7-7-7-7-7-7--9-9-9-9-9-9--------------|
A|-7-7--9-9--11-11--9-9--7--7-7-7-7-7-7--7-7-7-7-7-7--------------|
E|-5-5--7-7---9-9---7-7--5--5-5-5-5-5-5---------------------------|

"Everybody wants to give a shit outta me, I wont give it but I'll give irresponsiveness..."
e|-----------------------------------------------------------------|
B|-----------------------------------------------------------------|
G|-6-6-6-6-6-6-6-6-6-6-6-6-6-6-6-6---------------------------------|
D|-6-6-6-6-6-6-6-6-6-6-6-6-6-6-6-6---------------------------------|
A|-4-4-4-4-4-4-4-4-4-4-4-4-4-4-4-4---------------------------------|
E|-----------------------------------------------------------------|

e|---------------------------------------------------------------|
B|---------------------------------------------------------------|
G|---------------------------------------------------------------|
D|---------------4-----------------------------------------------|
A|-------------0-2-----------------------------------------------|
E|-5-5-4-4-2-2---------------------------------------------------|

"Everybody wants to drag me up again, I wanna go but the price keeps going up..."
e|-----------------------------------------------------------------|
B|-----------------------------------------------------------------|
G|-6-6-6-6-6-6-6-6-6-6-6-6-6-6-6-6---------------------------------|
D|-6-6-6-6-6-6-6-6-6-6-6-6-6-6-6-6---------------------------------|
A|-4-4-4-4-4-4-4-4-4-4-4-4-4-4-4-4---------------------------------|
E|-----------------------------------------------------------------|

"Going down is simple and practical, laying low but keeping cynical
I'm on the wagon and it's such a drag without a key kick, shot and a drag..."
e|------------------------------------------------------------------|
B|------------------------------------------------------------------|
G|-------------9------9-9--4-------5--------------------------------|
D|-7------7-7--9------9-9--4-------5--------------------------------|
A|-7------7-7--7-(x12)-7-7--2-(x16)-3-(x16)-------------------------|
E|-5-(x12)-5-5------------------------------------------------------|

Solo:

e|-------------------------------------------------------------------------------|
B|--------------------------12b14---------------------------------12-------12----|
G|------9-11b13b11p9-11-9-------------9-11b13b11p9-11-9--11b13----11b13----------|
D|-9s11---------------------------9s11-------------------------------------------|
A|-------------------------------------------------------------------------------|
E|-------------------------------------------------------------------------------|

e|-------------------------9-----9-----------9-12--------12-------12----|
B|-----------------------9-----9-------------------12b14----12b14-------|
G|-11b13b11-9----9----9-----9-----11b13b11------------------------------|
D|-------------11---11--------------------------------------------------|
A|----------------------------------------------------------------------|
E|----------------------------------------------------------------------|

e|-14b16b14p9----9-------------------------------------------------|
B|-------------14--------------------------------------------------|
G|-----------------------------------------------------------------|
D|-----------------------------------------------------------------|
A|-----------------------------------------------------------------|
E|-----------------------------------------------------------------|

"Well no one likes a quitter and an old punk's bitterness, so I'm waiting for the tap..."
e|--------------------------------------------------------|
B|--------------------------------------------------------|
G|-6-6--4-4-------9-9-------------------------------------|
D|-6-6--4-4--7-7--9-9-------------------------------------|
A|-4-4--2-2--7-7--7-7----7------9-------9--------11-------|
E|------------5-5------5----5s6----6-7-7---7-8-8-----8----|

"On my shoulder, because were all getting older not better, the laughs are no longer with us..."
e|---------------------------5-5-5-5-5-5--------------------------|
B|---------------------------5-5-5-5-5-5--------------------------|
G|---------------------------5-5-5-5-5-5--9-9-9-9-9-9-------------|
D|-7-7--9-9--11-11--9-9--7--7-7-7-7-7-7--9-9-9-9-9-9--------------|
A|-7-7--9-9--11-11--9-9--7--7-7-7-7-7-7--7-7-7-7-7-7--------------|
E|-5-5--7-7---9-9---7-7--5--5-5-5-5-5-5---------------------------|

"So call me fat fuck, geriatric punk..."
e|-------------------------------|
B|-------------------------------|
G|-6-6--4-4-------9-9------------|
D|-6-6--4-4--7-7--9-9------------|
A|-4-4--2-2--7-7--7-7------------|
E|------------5-5---------| -----|PALMUTE

"Call me fat fuck, geriatric punk..."
e|--------------------------------|
B|--------------------------------|
G|-6-6--4-4-------9-9-------------|
D|-6-6--4-4--7-7--9-9-------------|
A|-4-4--2-2--7-7--7-7-------------|
E|------------5-5---------| ------|PALMUTE

"Call me fat fuck geriatric punk, shit faced master of discrace..."
e|---------------------------5-5-5-5-5-5--------------------------|
B|---------------------------5-5-5-5-5-5--------------------------|
G|---------------------------5-5-5-5-5-5--9-9-9-9-9-9-------------|
D|-7-7--9-9--11-11--9-9--7--7-7-7-7-7-7--9-9-9-9-9-9--------------|
A|-7-7--9-9--11-11--9-9--7--7-7-7-7-7-7--7-7-7-7-7-7--------------|
E|-5-5--7-7---9-9---7-7--5--5-5-5-5-5-5---------------------------|

Thats the whole song with all the lyrics. The solo might be slighty wrong but it works when I play it.
Tap to rate this tab
# A B C D E F G H I J K L M N O P Q R S T U V W X Y Z