Guitaretab - guitar tabs
Song name
# A B C D E F G H I J K L M N O P Q R S T U V W X Y Z

Nofx - Golden Boys tab

Intro

* = play 12x

e|-----|
B|-----|
G|-----|
D|--7*-| - Play 4x 
A|--7--|
E|--5--|



-------------------------------------

Verse 1

Play each chord 8x (16?) 

e|---------|--5---5--|
B|---------|--7---6--|
G|---------|--7---7--|
D|--7---4--|--7---7--|
A|--7---4--|--5---5--|
E|--5---2--|---------|



play each chord 4x         
                  Palm mute
                     ___
                    /   \
e|-----------------------------|
B|-----------------------------|
G|----------6---6---7---7------|
D|--7---2---6---6---7---7------|
A|--7---2---4---4---5---5------|
E|--5---0----------------------|


Little lead thing 

e|-------------|
B|--2----------|
G|----4-2^4-2--|
D|-------------| 
A|-------------|
E|-------------|



--------------------------------------

Verse 2
Play each 8x (same as before)

e|---------|--5---5--|
B|---------|--7---6--|
G|---------|--7---7--|
D|--7---4--|--7---7--|
A|--7---4--|--5---5--|
E|--5---2--|---------|


play each chord 4x         
[ Tab from: http://www.guitaretab.com/n/nofx/78376.html ]
e|-----------------------------|
B|-----------------------------|
G|----------6---6---7---7------|
D|--7---2---6---6---7---7---7--|
A|--7---2---4---4---5---5---7--|
E|--5---0-------------------5--|



--------------------------------------

Chorus:

e|-----|
B|-----|
G|-----|  Go Go Golden Boys
D|--4--| 
A|--4--|
E|--2--|


Play each 6x

e|-------------------------|
B|-------------------------|
G|--4---4-----------6---6--|
D|--4---4---4---6---4---4--| 
A|--2---2---4---6---4---4--|
E|----------2---4----------|



Play each 8x

    Palm mute
     _______
    /       \
e|-----------------|
B|-----------------|
G|--7-------6---6--| 
D|--7---4---6---6--| 
A|--5---4---4---4--|
E|------2----------|



--------------------------------------

Verse 3

Play each 8x (same as before)

e|---------|--5---5--|
B|---------|--7---6--|
G|---------|--7---7--|
D|--7---4--|--7---7--|
A|--7---4--|--5---5--|
E|--5---2--|---------|


* = play 4x         


e|-----------------------------|-------------|
B|-----------------------------|-------------|
G|----------6---6---7---7------|--7--10------|
D|--7---2---6---6---7---7---7--|--7--10---7--|
A|--7---2---4---4---5---5---7--|--5---8---7--|
E|--5---0-------------------5--|----------5--|
                               \_____________/
                                 Play this 4x

Related for Golden Boys tab
Advertisement will be closed in 10 seconds