Song name
# A B C D E F G H I J K L M N O P Q R S T U V W X Y Z

Nofx - Theres No Fun In Fudamentalism tab

e----------------------------|
H----------------------------|
G--------5---5-7---7-5---3---|
D--5---5-5---5-7---7-5---5-3-| ...   (Chorus)
A--5---5-3---3-5---5-3---5-5-|
E--3---3-------------------5-|

There's no Fun, Fun, Fun, ...

e------------------------------------|
H------------------------------------|
G------------------5-5-5-5-5-7-7-7-7-|
D--5-5-5-5-7-7-7-7-5-5-5-5-5-7-7-7-7-| ... (Verse1)
A--5-5-5-5-7-7-7-7-3-3-3-3-3-5-5-5-5-|
E--3-3-3-3-5-5-5-5-------------------|

There's no Fun in Bible study class...

e----------------------------|
H----------------------------|
G--------5---5-7---7-5---3---|
D--5---5-5---5-7---7-5---5-3-| ...   (Chorus)
A--5---5-3---3-5---5-3---5-5-|
E--3---3-------------------5-|

There's no Fun, Fun, Fun, ...

e------------------------------------|
H------------------------------------|
G------------------5-5-5-5-5-7-7-7-7-|
D--5-5-5-5-7-7-7-7-5-5-5-5-5-7-7-7-7-| ... (Verse2)
A--5-5-5-5-7-7-7-7-3-3-3-3-3-5-5-5-5-|
E--3-3-3-3-5-5-5-5-------------------|

There's no Fun in praying on a man ...

e------------|
H------------|
G------------|
D-5--5--5--5-| ... (Bridge 1)
A-5--5--5--5-|
E-3--3--3--3-|

There's no fun for Fundamentalist, ...

e------------------------------------|
H------------------------------------|
G------------------5-5-5-5-5-7-7-7-7-|
D--5-5-5-5-7-7-7-7-5-5-5-5-5-7-7-7-7-| ... (Verse3)
A--5-5-5-5-7-7-7-7-3-3-3-3-3-5-5-5-5-|
E--3-3-3-3-5-5-5-5-------------------|

There's no fun in a theocracy...

e---------------------|
H---------------------|
G----------5---7---5--|
D-----5---5-5-7-7-5-5-| ... (Bridge 2)
A----5-5-3---5---3----|
E--3------------------|

There's no fun, fun, fun ...

e----------------------------|
H----------------------------|
G--------5---5-7---7-5---3---|
D--5---5-5---5-7---7-5---5-3-| ...   (Chorus)
A--5---5-3---3-5---5-3---5-5-|
E--3---3-------------------5-|

There's no Fun, Fun, Fun, ...

e-----
H-----
G-----
D--555 ...
A--555
E--333

There's no fuuuuuuuuuuuuun!
Tap to rate this tab
 
# A B C D E F G H I J K L M N O P Q R S T U V W X Y Z