Song name
# A B C D E F G H I J K L M N O P Q R S T U V W X Y Z

Nofx - Everything In Moderation Especially Moderation tab

artist: NOFX
song: everything in moderation (especially moderation)
album: never trust a hippy EP

tuning:
e
B
G
D
G
D


intro/main riff

--------------------------first----------|
---------------------------time--second--|
-9-129-121412912-9-129-1214{12}---time---|
-9-129-121412912-9-129-1214{12}--{000}---|
-9-129-121412912-9-129-1214{12}--{222}---|
---------------------------------{222}---|
                                  ...


verse

--------------|
--------------|
-----5~--7~---|
-2~--5~--7~---|
-4~--5~--7~---|
-2~-----------|


i didnt go into details...but you should be able to figure most of this out if you're 
a complete fucking retard...

-Dylan


punx.eff.it@hotmail.com
Tap to rate this tab
# A B C D E F G H I J K L M N O P Q R S T U V W X Y Z