Song name
# A B C D E F G H I J K L M N O P Q R S T U V W X Y Z

Nofx - 60 Reprise tab

     NOFX - 60% (reprise) track #18 from the CD Wolves In Wolves' Clothing

     INTRO 1 (x2)
e---------------------------------------|
b---------------------------------------|
g------------------------55555555555(pm)| Guitar 1
d------------------------33333333333(pm)|
a-55555555(pm)22222222(pm)--------------|
E-33333333(pm)00000000(pm)--------------|

e---------------------------------------|
b--------------------------5---------4--|
g----------------0-------5---------5----| Guitar 2
d-----5--------2-------5---------5------|
a---5--------2-------3---------3--------|
E-3-----3--0----------------------------|

    INTRO 2 (x1)
e---------------------------------------|
b---------------------------------------|
g------------------------55555555555(pm)| Guitar 1
d------------------------33333333333(pm)|
a-55555555(pm)22222222(pm)--------------|
E-33333333(pm)00000000(pm)--------------|

e---------------------------------------|
b--------------------------5---------4--|
g-------4--------0-------5---------5----| Guitar 2
d-----5--------2-------5---------5------|
a---5--------2-------3---------3--------|
E-3--------0----------------------------|

    Pre-Verse (x1)
e-----------------------------------------|
b-----------------------------------------|
g-----------------------------------------| Guitar 1
d-5-55-5----------------------------------|
a-5-55-5----------------------------------|
E-3-33-3----------------------------------|

e----------11-----11-----11-----11--------|
b------^11-11-^11-11-^11-11-^11-11-^11----|
g-----------------------------------------| Guitar 2
d-----------------------------------------|
a-----------------------------------------|
E-----------------------------------------|


    VERSE
e-----------------------------------------------------|
b-----------------------------------------------------|
g-------------------8888/11111111---------------------| guitar 1
d-88888888-55555555-8888/11111111-8888888888888888888-|
a-88888888-55555555-6666/-9-9-9-9-8888888888888888888-|
E-66666666-33333333---------------6666666666666666666-|

e-----------------------------------------------------|
b-----------------------------------------------------|
g---------15------------------------------------------| guitar 2
d-----------15-13-12-------------121315-121315-121315-|
a-----------------------------------------------------|
E-----------------------------------------------------|


e-----------------------------------------------------|
b-----------------------------------------------------|
g-------------------8888/11111111---------------------| guitar 1
d-88888888-55555555-8888/11111111-8888888888888888888-|
a-88888888-55555555-6666/-9-9-9-9-8888888888888888888-|
E-66666666-33333333---------------6666666666666666666-|

e-----------------------------------------------------|
b-----------------------------------------------------|
g-----------------------------------------------------| guitar 2
d-----------------------------------------------------|
a-----------------------------------------------------|
E-----------------------------------------------------|

   PRE-CHORUS
e-------------------------|
b-^14-1818-15p14----------|
g---------------15h17-----| guitar 2
d-------------------------|
a-------------------------|
E-------------------------|

   CHORUS
e-------------------------------------|
b-------------------------------------|
g-----5555----------33333333----------| guitar 1
d-----5555-33333333-33333333-55555555-|
a-----3333-33333333-11111111-55555555-|
E----------11111111----------33333333-|

e-------------------------------------|
b-------------------------------------|
g-55555555----------33333333----------| guitar 2
d-55555555-33333333-33333333-55555555-|
a-33333333-33333333-11111111-55555555-|
E----------11111111----------33333333-|

e-------------------------------------|
b-------------------------------------|
g-55555555----------33333333----------| guitar 1
d-55555555-33333333-33333333-55555555-|
a-33333333-33333333-11111111-55555555-|
E----------11111111----------33333333-|

e-------------------------------------|
b-------------------------------------|
g-55555555----------33333333----------| guitar 2
d-55555555-33333333-33333333-55555555-|
a-33333333-33333333-11111111-55555555-|
E----------11111111----------33333333-|


e-------------------------------------|
b-------------------------------------|
g-55555555----------33333333----------| guitar 1
d-55555555-33333333-33333333-55555555-|
a-33333333-33333333-11111111-55555555-|
E----------11111111----------33333333-|

e---------------------------------------|
b---------------------------------------|
g-55555555----------33333333-1515151515-| guitar 2
d-55555555-33333333-33333333-1515151515-|
a-33333333-33333333-11111111------------|
E----------11111111---------------------|

   ENDING
e----------------------------------------|
b----------------------------------------|
g-8-11-----------------------------------| guitar 1
d-8-11-8---------------------------------|
a-6-9--8---------------------------------|
E------6---------------------------------|

e------1~--2~---2~-2-2-----------------|
b------2---2----2~-2-2-----------------|
g------3~--0~---0~-0-0-----------------| guitar 2
d------0~--0~---0~-1-0-----------------|
a----------2~---2~-2-2-----------------|
E----------3~---3~---3-----------------|
Tap to rate this tab
 
# A B C D E F G H I J K L M N O P Q R S T U V W X Y Z