Song name
# A B C D E F G H I J K L M N O P Q R S T U V W X Y Z

Nogchompa - Stupid Things tab

Help us improve GuitareTab! Take a short survey!
Submitted by: Mike Bobo
Performed by: Nogchompa
strum these chords
------------------------------------------------------------------|
------------------------------------------------------------------|
------------------------------------------------------------------|
---12-----7----9------5-------------------------------------------|
---12-----7----9------5-------------------------------------------|
---10-----5----7------3-------------------------------------------|

------------------------------------------------------------------|
------------------------------------------------------------------|
------------------------------------------------------------------|
------------------------------------------------------------------|
--10h12---5h7---7h9---3h5-----------------------------------------|
--10------5-----7-----3-------------------------------------------|

solo:
-----------------------------------------------------------------|
-----------------------------------------------------------------|
-----------------------------------------------------------------|
-------12------------12------------7-----------7-----------------|
-----12---12-------12---12--------7--7--------7--7---------------|
---10--------10--10--------10----5-----5-----5-----5-------------|

-----------------------------------------------------------------|
-----------------------------------------------------------------|
-----------------------------------------------------------------|
-----9-----------9---------5-----------5-------------------------|
----9--9--------9--9------5--5--------5--5-----------------------|
---7-----7-----7-----7---3----3------3-----3---------------------|

thats it.
Related for Stupid Things tab