Song name
# A B C D E F G H I J K L M N O P Q R S T U V W X Y Z

Noir Desir - A Lenvers A Lendroit tab

"A l'envers, a l'endroit" Noir Desir
( source : Live Evry 2002 , joué 1 ton au dessus)


Fm 133111
Ab 466544
Bb 677566
C# x46664 ou 9.11.11.10.9.9
Cm x35543 ou 8.10.10.8.8.8


°°°Guitare Rythmique°°°

-Couplets : Fm/Ab/Bb Fm/Ab/Bb
-Pré-refrains : C#/Cm
-Refrains : Fm/C#/Cm Fm/Ab/Bb
-Pont et Final : Fm/C#/Cm Fm/Ab/Bb (le rythme change)


°°°Guitare Lead°°°

intro : 2 fois
e-----------------------------------------------------------|
B-----------------------------------------------------------|
G------5--------(5)--------5------7-------------------------|
D-----------6h8--6-------------6/8--(8)---------------------|
A---8-8---8-------------6-6---6-----------------------------|
E-----------------------------------------------------------|


e-----------------------------------------------------------|
B-----------------------------------------------------------|
G------5---------7---------5--------------------------------|
D-----------6h8--8-----------6---6--------------------------|
A---8-8---8-------------6-6----5----------------------------|
E-----------------------------------------------------------|


Couplet 1 :

On est pas encore revenu du pays des mystères
e-----------------------------------------------------------|
B-----------------------------------------------------------|
G------5---------5---------5------7-------------------------|
D-----------6h8----------------6/8--(8)---------------------|
A---8-8---8-------------6-6---6-----------------------------|
E-----------------------------------------------------------|


Il y a qu'on est entré là sans avoir vu de la lumière
e-----------------------------------------------------------|
B-----------------------------------------------------------|
G------5---------7---------5--------------------------------|
D-----------6h8--8-----------6---6--------------------------|
A---8-8---8-------------6-6----5----------------------------|
E-----------------------------------------------------------|


Il y a là l'eau le feu le computer Vivendi et la terre
e-----------------------------------------------------------|
B-----------------------------------------------------------|
G------5---------5---------5------7-------------------------|
D-----------6h8----------------6/8--(8)---------------------|
A---8-8---8-------------6-6---6-----------------------------|
E-----------------------------------------------------------|


On doit pouvoir s'épanouir à tout envoyer enfin en l'air
e-----------------------------------------------------------|
B-----------------------------------------------------------|
G------5---------7---------5--------------------------------|
D-----------6h8--8-----------6---6--------------------------|
A---8-8---8-------------6-6----5----------------------------|
E-----------------------------------------------------------|


e-----------------------------------------------------------|
B-----------------------------------------------------------|
G------5---------5---------5------7-------------------------|
D-----------6h8----------------6/8--(8)---------------------|
A---8-8---8-------------6-6---6-----------------------------|
E-----------------------------------------------------------|


e-----------------------------------------------------------|
B-----------------------------------------------------------|
G------5---------7---------5--------------------------------|
D-----------6h8--8-----------6---6--------------------------|
A---8-8---8-------------6-6----5----------------------------|
E-----------------------------------------------------------|


Couplet 2 :


On peut toujours saluer les petits rois de pacotille
e-----------------------------------------------------------|
B-----------------------------------------------------------|
G------5---------5---------5------7-------------------------|
D-----------6h8----------------6/8--(8)---------------------|
A---8-8---8-------------6-6---6-----------------------------|
E-----------------------------------------------------------|


On peut toujours espérer entrer un jour dans la famille
e-----------------------------------------------------------|
B-----------------------------------------------------------|
G------5---------7---------5--------------------------------|
D-----------6h8--8-----------6---6--------------------------|
A---8-8---8-------------6-6----5----------------------------|
E-----------------------------------------------------------|


Sûr que tu pourras devenir un crackboursier à toi tout seul
e-----------------------------------------------------------|
B-----------------------------------------------------------|
G------5---------5---------5------7-------------------------|
D-----------6h8----------------6/8--(8)---------------------|
A---8-8---8-------------6-6---6-----------------------------|
E-----------------------------------------------------------|


On pourrait même envisager que tout nous explose à la gueule
e-----------------------------------------------------------|
B-----------------------------------------------------------|
G------5---------7---------5--------------------------------|
D-----------6h8--8-----------6---6--------------------------|
A---8-8---8-------------6-6----5----------------------------|
E-----------------------------------------------------------|




Pré-refrain 1 :

Autour des oliviers palpitent les origines
e---------------------------------------------------------|
B------------6-----6--------------------------------------|
G-------6-------6----6-6----------------------------------|
D--/6-6---6---6---6---6-----------------------------------|
A---------------------------------------------------------|
E---------------------------------------------------------|

infiniment se voir rouler dans la farine
e---------------------------------------------------------|
B---------------------------------------------------------|
G---------8-----8-----------------------------------------|
D---------------------------------------------------------|
A--/10-10----10-----10/(0)--------------------------------|
E---------------------------------------------------------|



refrain 1 :

A l'envers à l'endroit à l'envers à l'endroit
e-----------------------------------------------------------|
B----------6------6----4------------------------------------|
G------5----------------------5------5-----5------7---------|
D-------------6-6----5------------6h8----------6/8----------|
A-8-8----8----------------8-8---8-------6-6--6--------------|
E-----------------------------------------------------------|

A l'endroit à l'envers à l'envers à l'endroit
e-----------------------------------------------------------|
B----------6------6----4------------------------------------|
G------5----------------------5------5-----5----------------|
D-------------6-6----5------------6h8-------6---6-----------|
A-8-8----8----------------8-8---8-------6-6---5-------------|
E-----------------------------------------------------------|


PONT 1 :

e-----------------------------------------------------------|
B-----------------------------------------------------------|
G----5/(10)--10---8---10----8-/(5)---5------5----5-----7----|
D----------------10-------10-------------6h8--------6/8-----|
A-8(8)/(11)-11---10--10-10---------8---8------6-6--6--------|
E-----------------------------------------------------------|
gratter la 8, laisser sonner , gratter la 5 et declencher
le slide sur les 2 cordes pour arriver
 sur 10 et 8 en meme temps

e-----------------------------------------------------------|
B----------------------8------------------------------------|
G----5/(10)---10--8---------8-/(5)---5------5----5----------|
D----------------10-------10-------------6h8------6--6------|
A-8(8)/(11)-11---10--10-10---------8---8------6-6--5--------|
E-----------------------------------------------------------|



couplet 3 :


Y'a t'il un incendie prévu ce soir dans l'hémicycle
e-----------------------------------------------------------|
B-----------------------------------------------------------|
G------5---------5---------5------7-------------------------|
D-----------6h8----------------6/8--(8)---------------------|
A---8-8---8-------------6-6---6-----------------------------|
E-----------------------------------------------------------|


On dirait qu'il est temps pour nous d'envisager un autre
cycle
e-----------------------------------------------------------|
B-----------------------------------------------------------|
G------5---------7---------5--------------------------------|
D-----------6h8--8-----------6---6--------------------------|
A---8-8---8-------------6-6----5----------------------------|
E-----------------------------------------------------------|


On peut caresser des idéaux sans s'éloigner d'en bas
e-----------------------------------------------------------|
B-----------------------------------------------------------|
G------5---------5---------5------7-------------------------|
D-----------6h8----------------6/8--(8)---------------------|
A---8-8---8-------------6-6---6-----------------------------|
E-----------------------------------------------------------|


On peut toujours rêver de s'en aller mais sans bouger de là
e-----------------------------------------------------------|
B-----------------------------------------------------------|
G------5---------7---------5--------------------------------|
D-----------6h8--8-----------6---6--------------------------|
A---8-8---8-------------6-6----5----------------------------|
E-----------------------------------------------------------|


Breack 1 :


e------1------1---------------------------------------------|
B-----1-1----1-1------4-------------------------------------|
G----1---1--1---1-----5--------7----------------------------|
D--3-------3--------6---6------8----------------------------|
A-----------------------------------------------------------|
E-----------------4-------(4)/6-----------------------------|

e------1------1---------------------------------------------|
B-----1-1----1-1------4-------------------------------------|
G----1---1--1---1-----5--------7----------------------------|
D--3-------3--------6---6------8----------------------------|
A-----------------------------------------------------------|
E-----------------4-------(4)/6-----------------------------|



Couplet 4 :


Il paraît que la blanche colombe à trois cents tonnes de
plombs dans l'aile
e-----------------------------------------------------------|
B-----------------------------------------------------------|
G------5---------5---------5------7-------------------------|
D-----------6h8----------------6/8--(8)---------------------|
A---8-8---8-------------6-6---6-----------------------------|
E-----------------------------------------------------------|


Il parît qu'il faut s'habituer à des printemps sans
hirondelles
e-----------------------------------------------------------|
B-----------------------------------------------------------|
G------5---------7---------5--------------------------------|
D-----------6h8--8-----------6---6--------------------------|
A---8-8---8-------------6-6----5----------------------------|
E-----------------------------------------------------------|


La belle au bois dormant a rompu les négociations
e-----------------------------------------------------------|
B-----------------------------------------------------------|
G------5---------5---------5------7-------------------------|
D-----------6h8----------------6/8--(8)---------------------|
A---8-8---8-------------6-6---6-----------------------------|
E-----------------------------------------------------------|


Unilatéralement le prince entame des protestations
e-----------------------------------------------------------|
B-----------------------------------------------------------|
G------5---------7---------5--------------------------------|
D-----------6h8--8-----------6---6--------------------------|
A---8-8---8-------------6-6----5----------------------------|
E-----------------------------------------------------------|


Breack 2 : 2 temps (sans guitare)



Couplet 5 :


Doit-on se courber encore et toujours pour une ligne droite?
e-----------------------------------------------------------|
B-----------------------------------------------------------|
G------5---------5---------5------7-------------------------|
D-----------6h8----------------6/8--(8)---------------------|
A---8-8---8-------------6-6---6-----------------------------|
E-----------------------------------------------------------|


Prière pour trouver les grands espaces entre les parois
d'une boîte
e-----------------------------------------------------------|
B-----------------------------------------------------------|
G------5---------7---------5--------------------------------|
D-----------6h8--8-----------6---6--------------------------|
A---8-8---8-------------6-6----5----------------------------|
E-----------------------------------------------------------|


Serait-ce un estuaire ou le bout du chemin au loin qu'on
entrevoit
e-----------------------------------------------------------|
B-----------------------------------------------------------|
G------5---------5---------5------7-------------------------|
D-----------6h8----------------6/8--(8)---------------------|
A---8-8---8-------------6-6---6-----------------------------|
E-----------------------------------------------------------|


Spéciale dédicace à la flaque où on nage où on se noie
e-----------------------------------------------------------|
B-----------------------------------------------------------|
G------5---------7---------5--------------------------------|
D-----------6h8--8-----------6---6--------------------------|
A---8-8---8-------------6-6----5----------------------------|
E-----------------------------------------------------------|




Pré-refrain 2 :

Autour des amandiers fleurissent les mondes en sourdine
e---------------------------------------------------------|
B------------6-----6--------------------------------------|
G-------6-------6----6-6----------------------------------|
D--/6-6---6---6---6---6-----------------------------------|
A---------------------------------------------------------|
E---------------------------------------------------------|

No pasaran sous les fourches caudines
e---------------------------------------------------------|
B---------------------------------------------------------|
G----8/---------------------------------------------------|
D----8/---------------------------------------------------|
A---10/---------------------------------------------------|
E---------------------------------------------------------|



refrain 2 :

A l'envers à l'endroit à l'envers à l'endroit
e-----------------------------------------------------------|
B----------6------6----4------------------------------------|
G------5----------------------5------5-----5------7---------|
D-------------6-6----5------------6h8----------6/8----------|
A-8-8----8----------------8-8---8-------6-6--6--------------|
E-----------------------------------------------------------|

A l'endroit à l'envers à l'envers à l'endroit
e-----------------------------------------------------------|
B----------6------6----4------------------------------------|
G------5----------------------5------5-----5----------------|
D-------------6-6----5------------6h8-------6---6-----------|
A-8-8----8----------------8-8---8-------6-6---5-------------|
E-----------------------------------------------------------|


Final :


e-----------------------------------------------------------|
B----------------------8------------------------------------|
G----5/(10)---10--8---------8-/(5)---5------5----5-----7----|
D----------------10-------10-------------6h8--------6/8-----|
A-8(8)/(11)-11---10--10-10---------8---8------6-6--6--------|
E-----------------------------------------------------------|


e-----------------------------------------------------------|
B-----------------------------------------------------------|
G----5/(10)--10---8---10----8-/(5)---5------5----5-----7----|
D----------------10-------10-------------6h8--------6/8-----|
A-8(8)/(11)-11---10--10-10---------8---8------6-6--6--------|
E-----------------------------------------------------------|


e-----------------------------------------------------------|
B-----------------------------------------------------------|
G----5/(10)--10---8----8----8-/(5)---5------5----5-----7----|
D----------------10-------10-------------6h8--------6/8-----|
A-8(8)/(11)-11---10--10-10---------8---8------6-6--6--------|
E-----------------------------------------------------------|


e---------------------------------------------------------1-|
B----------------------8----------------------------------1-|
G----5/(10)---10--8---------8-/(5)---5------5----5-----7--1-|
D----------------10-------10-------------6h8--------6/8---3-|
A-8(8)/(11)-11---10--10-10---------8---8------6-6--6------3-|
E---------------------------------------------------------1-|
Tap to rate this tab
# A B C D E F G H I J K L M N O P Q R S T U V W X Y Z