Noise Pollution - Nobody Else tab

Noise Pollution - Nobody Else
Tabbed by Xaso - thenegativealex@hotmail.com

intro
e||---------------------------|--------------------------|
b||---------------------------|--------------------------|
g||----11x8--14x8--13x8--16x8-|---18x8--14x8--13x8--16x8-|
d||---------------------------|--------------------------|
a||---------------------------|--------------------------|
e||---------------------------|--------------------------|

guitar 1
e||---------------------------|--------------------------|
b||---------------------------|--------------------------|
g||----11x8--14x8--13x8--16x8-|---18x8--14x8--13x8--16x8-|
d||---------------------------|--------------------------|
a||---------------------------|--------------------------|
e||---------------------------|--------------------------|

guitar 2
e||---------------------------|
b||---------------------------|
g||---------------------------|
d||---6---------9-------------|
a||---4x5--7----7x5--9--------|
e||--------5x5-------7x5------|twice

both guitars
e||---------------------------|
b||---------------------------|
g||---------------------------|
d||---6---------9-------------|
a||---4x8--7----7x8--9--------|
e||--------5x8-------7x8------|x4

e||---------------------------|
b||---------------------------|
g||---------------------------|
d||---6-----9-----------------|
a||---4x16--7x16--9-----7-----|
e||---------------7x16--5x16--|

e||---------------------------|
b||---------------------------|
g||---------------------------|
d||---6---------9-------------|
a||---4x8--7----7x8--9--------|
e||--------5x8-------7x8------|x4

repeat the same (listen the song)

e||---------------------------|---------------------------|
b||---------------------------|---------------------------|
g||---------------------------|---------------------------|
d||---------------------------|---------------------------|
a||-4-4-44--444-6-------------|-6-6-66--666--6------------|
e||-2-2-22--222-4-------------|-4-4-44--444--4------------|x2

e||---------------------------|
b||---------------------------|
g||---------------------------|
d||---------------------------|
a||-666-6---99-99-999-9-99-99-|
e||-444-4---77-77-777-7-77-79-|

both guitars
e||---------------------------|
b||---------------------------|
g||---------------------------|
d||---6---------9-------------|
a||---4x8--7----7x8--9--------|
e||--------5x8-------7x8------|


The End

Tap to rate this tab
 
# A B C D E F G H I J K L M N O P Q R S T U V W X Y Z