Song name
# A B C D E F G H I J K L M N O P Q R S T U V W X Y Z

Noise Ratchet - For You Ill Be Forgetting Me tab

Noise Ratchet

For You Iíll Be Forgetting Me

i just got up to the chorus. im gonna try to get the whole thing one of these days. let 
know if think somethings wrong. you can email me at martwin12@aol.com

It is played in drop d.

Intro:

Guitar 1:(Clean)
-9---9---9---9---9---9---9---9---9---9---9-|
--10--10--10--10--10--10--10--10--10--10---|
7---7---7---7---7---7---7---7---7---7---7--|
-------------------------------------------| (Play 4 x's)
-------------------------------------------|
-------------------------------------------|

Guitar 2:(Clean)(listen to the strumming)
0-------------------0------9-------7------|
5-------------------10-----10-----10------|
6-------------------9------9------9-------| (Play 2 x's)
7-------------------0------0------0-------|
------------------------------------------|
------------------------------------------|

Guitar 1:(Distortion)
--------------------------------------------------------------------|
--------------------------------------------------------------------|
6-6-6-6-6--6-6-6/7-7-7-7--7-7-7/14-14-14-14-14--14-14/9--9-9-9/11/9-|
x-x-x-x-x--x-x-x-x-x-x-x--x-x-x-x--x--x--x--x---x--x--x--x-x-x-x--x-| (2 x's)
4-4-4-4-4--4-4-4/5-5-5-5--5-5-5/12-12-12-12-12--12-12/7--7-7-7/9/ 7-|
--------------------------------------------------------------------|

Guitar 2:(Distortion)
-------------------------------------------------------------|
-------------------------------------------------------------|
-------------------------------------------------------------|
4-4-4-4-4--4-4-4/5-5-5-5--5-5-5/9-9-9-9-9--9-9/7-7-7-7-7-7-7-| (2 x's)
4-4-4-4-4--4-4-4/5-5-5-5--5-5-5/9-9-9-9-9--9-9/7-7-7-7-7-7-7-|
4-4-4-4-4--4-4-4/5-5-5-5--5-5-5/9-9-9-9-9--9-9/7-7-7-7-7-7-7-|

verse 1:

Guitar 1:(Clean)
-2-5-2-0-2-5-2-0-2-5-2-/9--9------10-10-10p9--|
3-3---3---3---3---3---3/10-10-10--10-10-10p10-|
----------------------------------------------| (4 x's)
----------------------------------------------|
----------------------------------------------|

Guitar 2:(Clean)
--------------------0------9-------7------|
5-------------------10-----10-----10------|
6-------------------9------9------9-------| (Play 2 x's)
7-------------------0------0------0-------|
------------------------------------------|
------------------------------------------|
Tap to rate this tab
# A B C D E F G H I J K L M N O P Q R S T U V W X Y Z