Song name
# A B C D E F G H I J K L M N O P Q R S T U V W X Y Z

Noise Therapy - Loser Magnet tab

Loser magnet by Noise therapy


Intro:
e|----------------|
B|--8-Double stop-|
G|--7-------------|
D|----------------|
A|----------------|
D|----------------|

Then slide from first fret on D string with pick hand

Verse 1:
e|-----------------------------------------------|
B|-----------------------------------------------|
G|-----------------------------------------------|
D|--6-6-6-6--------------------------------------|
A|--4-4-4-4--6-6-6-6--5-5-5-5--3-3-3-3--0-0-0-0--|
D|-----------6-6-6-6--5-5-5-5--3-3-3-3--0-0-0-0-
             * * * *  * * * *  * * * *  * * * * slightly palm Muted

Verse 2:
e|-----------------------------------------------|
B|-----------------------------------------------|
G|-----------------------------------------------|
D|--6-6-6-6--------------------------------------|
A|--4-4-4-4--6-6-6-6--5-5-5-5--3-3-3-3--0-0-0-0--|
D|-----------6-6-6-6--5-5-5-5--3-3-3-3--0-0-0-0-
    * * * *  * * * *  * * * *  * * * *  * * * * Heavy muting


verse 3:
e|--------------------------21 Pick squeel-------slide picl back in forth between these----|
B|----13--Double Stop----------------------------two strngs to make a really strange noise-|
G|----12^----------------------------------------------------------------------------------|
D|-----------------------------------------------------------------------------------------|
A|-----------------------------------------------------------------------------------------|
D|-----------------------------------------------------------------------------------------|

Chorus 1:
e|---------------------------------------|
B|-----------------------------3-3--3-3--|
G|-----------------------------2-2--2-2--|
D|--6-6-6-6--2-2-2-2--4-4-4-4--0-0--0-0--|
A|--4-4-4-4--0-0-0-0--2-2-2-2--0-0--0-0--|
D|-----------------------------0-0--0-0--|


Chorus 2:
e|--------------------------------------|
B|--------------------------------------|
G|--------------------------------------|
D|--6-6-6-6--2-2-2-2--4-4-4-4-----------|
A|--4-4-4-4--0-0-0-0--2-2-2-2--5-5-5-5--|
d|-----------------------------5-5-5-5--|

bridge thing:
e|-------------------------------------------------------------------|
B|-------------------------------------------------------------------|
G|-------------------------------------------------------------------|
D|----------------------------7---------------------------------5-5--|
A|---5-5-5 Repeat for a while-5--do this a few times then-5-5-5-5-5--|
D|-------------------------------------------------------------------|

 well there you go enjoy
Tap to rate this tab
# A B C D E F G H I J K L M N O P Q R S T U V W X Y Z