Song name
# A B C D E F G H I J K L M N O P Q R S T U V W X Y Z

Noise - A Moment More tab

                                                                         The Noise

                                                                     A moment more


Standard tuning: E A D G B E

Intro :

Francesco's Lead guitar

E |--------------------------------------------------------------------------|
B |--12--12--12--12--14--14--16--16-----11--11--11--11--12--12--14--14-------|
G |---11--11--11--11--11--11--11--11-----11--11--11--11--11--11--11--11------|
D |--------------------------------------------------------------------------|
A |--------------------------------------------------------------------------|
E |--------------------------------------------------------------------------|

                                                                                         
                                                          x2

E |------------------------------------------------------------------------------|
B |--16--16--16--16--17--17--19--19--14--14--14--14--16--16--17--17--12~~~~------|
G |---16--16--16--16--16--16--16--16--16--16--16--16--16--16--16--16-------------|
D |------------------------------------------------------------------------------|
A |------------------------------------------------------------------------------|
E |------------------------------------------------------------------------------|


Chords:  ( Andrea plays power chords only in the Intro and in the Chorus)

B        *24422
F#       244322
G#m    466444
E         022100


First Verse :

  B                  F#
I'm feeling so cold
                    E
to be here alone
               G#m         F#       B
along this unexplored path

                             F#
the night has just gone
                              E
but the way is still long
               G#m       F#
I've gotta pay for all I've done wrong


Pre Chorus :

E |---0----0---0---0---0---0---0---0----0---0---0---0---0---0---0---------|
B |---12--12--12--12--12--12--12--12--14--14--14--14--14--14--14----------|
G |-----------------------------------------------------------------------|
D |------------------------------------------------------------------\----|
A |-------------------------------------------------------------------\---|
E |--------------------------------------------------------------------\--|


  E                 F#
         this is just my last desire


Chorus :

E |---------------------------------------------------------------------------|
B |--12--12--12--12--14--14--16--16-----11--11--11--11--12--12--14--14--------|
G |---11--11--11--11--11--11--11--11-----11--11--11--11--11--11--11--11-------|
D |---------------------------------------------------------------------------|
A |---------------------------------------------------------------------------|
E |---------------------------------------------------------------------------|

                                                                                         
                                                          x2

E |------------------------------------------------------------------------------|
B |--16--16--16--16--17--17--19--19--14--14--14--14--16--16--17--17--12~~~~------|
G |---16--16--16--16--16--16--16--16--16--16--16--16--16--16--16--16-------------|
D |------------------------------------------------------------------------------|
A |------------------------------------------------------------------------------|
E |------------------------------------------------------------------------------|



  B                   F#                        G#m                 E
A moment more to speak about love just me and you
  B                   F#                        G#m                 E
that's all that I want and all that I need


Second Verse :

 B               F#
I can hear you
                        E
and all of your fear
        G#m                F#
and I swear that they are killing me

 B                                F#
I would stay there with you
                           E
and hold you so tight
             G#m                     F#
not just look at you from such a high


Pre Chorus :

E |---0----0---0---0---0---0---0---0----0---0---0---0---0---0---0---------|
B |---12--12--12--12--12--12--12--12--14--14--14--14--14--14--14----------|
G |-----------------------------------------------------------------------|
D |------------------------------------------------------------------\----|
A |-------------------------------------------------------------------\---|
E |--------------------------------------------------------------------\--|


  E               F#
         this is just my last sigh


Chorus :

E |---------------------------------------------------------------------------|
B |--12--12--12--12--14--14--16--16-----11--11--11--11--12--12--14--14--------|
G |---11--11--11--11--11--11--11--11-----11--11--11--11--11--11--11--11-------|
D |---------------------------------------------------------------------------|
A |---------------------------------------------------------------------------|
E |---------------------------------------------------------------------------|

                                                                                         
                                                          x2

E |------------------------------------------------------------------------------|
B |--16--16--16--16--17--17--19--19--14--14--14--14--16--16--17--17--12~~~~------|
G |---16--16--16--16--16--16--16--16--16--16--16--16--16--16--16--16-------------|
D |------------------------------------------------------------------------------|
A |------------------------------------------------------------------------------|
E |------------------------------------------------------------------------------|



  B                   F#                        G#m                 E
A moment more to speak about love just me and you
  B                   F#                        G#m                 E
that's all that I want and all that I need



Solo :

E |-----------------------------------------------------------------------------------|
B |---------------5----5\7~-7-7-7-7--5-4h5p4--------------------------5\7--7-7-7-7----|
G |------4---6------4-------------------------6~--4\3---------------------------------|
D |--4\6---6---6---------------------------------------4----4\6\4-4\6-----------------|
A |-------------------------------------------------------6---------------------------|
E |-----------------------------------------------------------------------------------|

E |------------------------------------------------------------------------------------|
B |--4h5p4-----------------------------------------------------------------------------|
G |---------4~-6b(8) -6b(8)--4--4\6\8\11\3~-6b(8)--4-----------------------------------|
D |-------------------------------------------------6--4----4\6\9\4--------------------|
A |-------------------------------------------------------6---------4\6--6--5--4\2\7---|
E |------------------------------------------------------------------------------------|

Bridge: (Play this with a very distorted guitar, hear the song to understand the pattern 
in the best way)

                         I would kiss you                   my love, but my lips are cold and numb

E |--x------x-\------x--            E |--x---------\-------x---|
B |--x------x-\----- x---           B |--x---------\-------x---|
G |--x------x-\------x--           G |--x---------\-------x----|
D |--x------4-\------6~-           D |--x---------\-------9~---|
A |--x------4-\------6~-           A |--x-------9-\-------9~---|
E |--x--2-----\-4~------            E |--x--6------\-7~--------|


     I would tell you many                          things,     but I can no longer

E |--------x---                    E |--x--------x-\--------x---|
B |--------x---                    B |--x--------x-\--------x---|
G |--------6---                   G |--x--------x-\--------9~---|
D |--------6~-                     D |--x-------9~-\-------9~---|
A |--4~--------                   A |--x--6~------\-7~----------|
E |--x---------                    E |--x----------\-x----------|


         come

E |--------x-\-------x-\--------x-\---|
B |--------x-\-------x-\--------x-\---|
G |--------x-\-------x-\--------x-\---|
D |--------2~\-------x-\--------x-\---|
A |--------2~\-------4~\--------8-----|\
E |--0~------\-2~\------- 6~\-------\-|


                      I would kiss you                  my love, but my lips are cold and numb

E |------x-\------x--            E |--x---------\-------x---|
B |------x-\----- x---           B |--x---------\-------x---|
G |------x-\------x--           G |--x---------\-------x----|
D |------4-\------6~-           D |--x---------\-------9~---|
A |------4-\------6~-           A |--x-------9-\-------9~---|
E |--2-----\-4~------            E |--x--6------\-7~--------|


     I would tell you many  things.

E |--------x---                    E |--------x-|--x--\--------------|
B |--------x---                    B |--------x-|--x--\--------------|
G |--------6---                   G |--------x-|--x--\---------------|
D |--------6~-                     D|--------4~-|-x--\------4~-\-----|
A |--4~--------                   A |--------4~-|-x--\------4~-\-----|
E |--x---------                    E |-2~-----|----x--\--2~---\------|



Chorus :

E |---------------------------------------------------------------------------|
B |--12--12--12--12--14--14--16--16-----11--11--11--11--12--12--14--14--------|
G |---11--11--11--11--11--11--11--11-----11--11--11--11--11--11--11--11-------|
D |---------------------------------------------------------------------------|
A |---------------------------------------------------------------------------|
E |---------------------------------------------------------------------------|

                                                                                         
                                                          x2

E |------------------------------------------------------------------------------|
B |--16--16--16--16--17--17--19--19--14--14--14--14--16--16--17--17--12~~~~------|
G |---16--16--16--16--16--16--16--16--16--16--16--16--16--16--16--16-------------|
D |------------------------------------------------------------------------------|
A |------------------------------------------------------------------------------|
E |------------------------------------------------------------------------------|


 B                       F#                         G#m               E
That's all that I want and all that I need
(to touch your lips, mess up your hairs, a moment more to relive all the ambitions you gave me)
 B                       F#                         G#m               E
that's all that I want and all that I need
(to dry your eyes while you were crying, a moment more to relive all the emotions you gave me)


Outro :

E |-----------------------------------------------------------------------|
B |-----------------------------------------------------------------------|
G |-----------------------------------------------------------------------|
D |---4\-6--6\-8--8\-9--9\-11--11\-9--9\-11--11\-13--13\-14--14\-13-------|
A |-----------------------------------------------------------------------|
E |--2\-4--4\-6--6\-7--7\-9--9\-7--7\-9--9\-11--11\-12--12\-11--11\-------|

E |--------------------------------|
B |--------------------------------|
G |--------------------------------|
D |---14--14\-16--16\-18--18\-9----|
A |--------------------------------|
E |-12--12\-14--14\-16--16\-7------|


Notation:
h - hammer on
p - pull off
/ - slide
~ - vibrato
b - bend; number in brackets shows the target fret
Tap to rate this tab
# A B C D E F G H I J K L M N O P Q R S T U V W X Y Z