Noiserv - Bullets On Parade tab

-------------------------------------------------------------------------------
			     BULLETS ON PARADE - NOISERV
-------------------------------------------------------------------------------
Tabbed by: Joana P.

Tuning: capo on first fret!

The numbers start counting as the capo as the normal tuning. So the number "1", with 
is actually the number "2", without capo.


|--------0-------0-------0-------0---------------0-------0-------0-------0-------|
|--------5-------5-------5-------5---------------5-------5-------5-------5-------|
|--------6-------6-------6-------6----(x2)-------6-------6-------6-------6---(x2)|
|--------------------------------------------------------------------------------|
|---4----------------4-----------------------------------------------------------|
|------------4----------------4--------------5-------0-------5-------0-----------|

That's all. This is how the guitar sounds the entire song.

www.myspace.com/noiserv
Tap to rate this tab
 
# A B C D E F G H I J K L M N O P Q R S T U V W X Y Z