Noiserv - The Sad Story Of A Little Town tab

-------------------------------------------------------------------------------
			     The Sad Story of a Little Town - Noiserv
-------------------------------------------------------------------------------
Tabbed by:KnockMeDown

I think this is the correct tab, it was confirmed by an "expert" :)


e|--------------------------------------------------------------------------|
B|----5---5---5---5---5---5---5---5-|---4---4---4---4---4---4---4---4-------|
G|----6---6---6---6---6---6---6---6-|---5---5---5---5---5---5---5---5-------|
D|----6---6---6---6---6---6---6---6-|---6---6---6---6---6---6---6---6-------|
A|--4-------4-------4-------4-------|-6-------6-------6-------6-------------|
E|------4-------4-------4-------4---|-----4-------4-------4-------4---------|

e|----------------------------------|---------------------------------------|
B|----5---5---5---5---5---5---5---5-|---4---4---4---4---4---4---4---4-------|
G|----6---6---6---6---6---6---6---6-|---5---5---5---5---5---5---5---5-------|
D|----7---7---7---7---7---7---7---7-|---6---6---6---6---6---6---6---6-------|
A|--7-------7-------7-------7-------|-6-------6-------6-------6-------------|
E|------5-------5-------5-------5---|-----4-------4-------4-------4---------|
Tap to rate this tab
 
# A B C D E F G H I J K L M N O P Q R S T U V W X Y Z