Song name
# A B C D E F G H I J K L M N O P Q R S T U V W X Y Z

Noisettes - Dont Give Up tab

Don't Give Up - Noisettes

Tabbed by: ninja_emily
Email: emster96@hotmail.co.uk

Tuning: Standard

This is the first tab I've done by the Noisettes so sorry if it's bad :(
This is my favourite Noisettes song and it's really easy to play.
P.S. The new stuff by the Noisettes is baaadd but I like this song and most of their 
stuff.
Anyway here it is :)

Play this part lots for the intro and verses:
e|-------------------------------------------------------------------------|
B|-------------------------------------------------------------------------|
G|-------------------------------------------------------------------------|
D|-------------------------------------------------------------------------|
A|-------------------------------------------------------------------------|
E|-3-6-3---3-3-4-3---------------------------------------------------------|

Then play this for the chorus. It plays it a few times but listen to the song and play 
with it :)
e|-------------------------------------------------------------------------|
B|-------------------------------------------------------------------------|
G|-------------------------------------------------------------------------|
D|----7--------------------------------------------------------------------|
A|-5--5--8--9--------------------------------------------------------------|
E|-3-----6--7--------------------------------------------------------------|

Thats it :) I think it sounds okay but email me with any questions.
Tap to rate this tab
 
# A B C D E F G H I J K L M N O P Q R S T U V W X Y Z