Nokturnal Mortum - Ancient Nation tab

E||-----------------------|-------------------------|
B||-----------------------|-------------------------|
G||-----------------------|-------------------------|
D||-----------5--4-----5--|--4--------4--------4----|
A||-----------------7-----|-----4--4-----4--4-------|
E||-----------------------|-------------------------|
  
---------------------------|--------------------------||
---------------------------|--------------------------||
---------------------------|--------------------------||
-------7--9--10--9--7--10--|--3--------3--------3--4--||
---------------------------|-----3--3-----3--3--------||
---------------------------|--------------------------||
 
Rhythm:

     W                   W                
E||-------------------|-------------------|
B||-------------------|-------------------|
G||-------------------|-------------------|
D||-------------------|-------------------|
A||--2----------------|--4----------------|
E||--0----------------|--2----------------|

  W                   W                 
-------------------|-------------------||
-------------------|-------------------||
-------------------|-------------------||
--2----------------|-------------------||
--0----------------|--3----------------||
-------------------|--1----------------||
Tap to rate this tab
 
# A B C D E F G H I J K L M N O P Q R S T U V W X Y Z