Song name
# A B C D E F G H I J K L M N O P Q R S T U V W X Y Z

Nokturnal Mortum - Peruns Celestial Silver tab

Help us improve GuitareTab! Take a short survey!
Nokturnal Mortum
Perun's Celestial Silver
Lunar Poetry 1996

Originally Tabbed on Guitar Pro by DarkstarRising  jurakic666@yahoo.com
Transcribed to text format by Koliak2991 Koliak2991@hotmail.com
Slava Perunu i vechnaya Slava Geroyam!
I (used to) know what its like not having Guitar Pro and it pissed me off that alot of 
songs were on it, so I just felt like contributing.

standard tuning
Intro-keyboard
-------------------------------------------------------------------------------------------|
------14--12-14-15--14-------14--12-----------------14--12-14-15--14-----14----------------|
-11----------------------11----------14--13-----11--------------------11-------14--13--11--|
-------------------------------------------------------------------------------------------|
-------------------------------------------------------------------------------------------|
-------------------------------------------------------------------------------------------|

Guitar Riff 1
Part A
---------------------------------------------------------------------|
---------------------------------------------------------------------|
---------------------------------------------------------------------|
---------------------------------------------------------------------|
-4-------4--4-----------4--4-----------4--4--------------------------|
-2-2-2-2-2--2-2-2-2-2-2-2--2-2-2-2-2-2-2--2-2-2-2-5---4--------------|


Part B
------------------------------------------------------------------|
------------------------------------------------------------------|
------------------------------------------------------------------|
------------------------------------------------------------------|
-4-------4--4-----------4--4-----------4--4-------5---4-----------|
-2-2-2-2-2--2-2-2-2-2-2-2--2-2-2-2-2-2-2--2-2-2-2-----------------|

Guitar Riff 2 Lead ALL NOTES TREMOLO PICKED!
-----------------------------------------------------------------|
-----------------------------------------------------------------|
-----------------------------------------------------------------|
----------10---9-------------10-12-13-12-------------------------|
-7-9-10-7----7---7-7-9-10-7--------------------------------------|
-----------------------------------------------------------------|

Guitar Riff 2 Rhythm ALL NOTES TREMOLO PICKED!
-----------------------------------------------------------------|
-----------------------------------------------------------------|
-----------------------------------------------------------------|
-----------------------------------------------------------------|
---------3---2------------3-5-6-5--------------------------------|
-0-2-3-0---0----0-0-2-3-2----------------------------------------|
^Rhythm Guitar plays that^ 4 times then goes:

-----------------------------------|
-----------------------------------|
-----------------------------------|
-2-7-5-4---------------------------|
-2-7-5-4--then-tremolo-pick-these--|
-0-5-3-2---------------------------|

Thats really all I felt like tabbing out, its most of the song, unfortunately nobody 
has the solo, but someone recently posted a bunch of Nokturnal Mortum vids on youtube and 
someone can see how he plays it, I can definately see he does some finger tapping.
Related for Peruns Celestial Silver tab